999
last saved by ezdxf 0.7.7 on 2017-01-10 12:21:56
  0
SECTION
  2
HEADER
  9
$ACADVER
  1
AC1027
  9
$ACADMAINTVER
 70
8
  9
$DWGCODEPAGE
  3
ANSI_1252
  9
$LASTSAVEDBY
  1
unknown
  9
$REQUIREDVERSIONS
160
0
  9
$INSBASE
 10
0.0
 20
0.0
 30
0.0
  9
$EXTMIN
 10
1e+20
 20
1e+20
 30
1e+20
  9
$EXTMAX
 10
-1e+20
 20
-1e+20
 30
-1e+20
  9
$LIMMIN
 10
0.0
 20
0.0
  9
$LIMMAX
 10
12.0
 20
9.0
  9
$ORTHOMODE
 70
0
  9
$REGENMODE
 70
1
  9
$FILLMODE
 70
1
  9
$QTEXTMODE
 70
0
  9
$MIRRTEXT
 70
0
  9
$LTSCALE
 40
1.0
  9
$ATTMODE
 70
1
  9
$TEXTSIZE
 40
0.2
  9
$TRACEWID
 40
0.05
  9
$TEXTSTYLE
  7
Notes
  9
$CLAYER
  8
0
  9
$CELTYPE
  6
ByLayer
  9
$CECOLOR
 62
256
  9
$CELTSCALE
 40
1.0
  9
$DISPSILH
 70
0
  9
$DIMSCALE
 40
1.0
  9
$DIMASZ
 40
3.0
  9
$DIMEXO
 40
1.5
  9
$DIMDLI
 40
6.0
  9
$DIMRND
 40
0.0
  9
$DIMDLE
 40
0.0
  9
$DIMEXE
 40
3.0
  9
$DIMTP
 40
0.0
  9
$DIMTM
 40
0.0
  9
$DIMTXT
 40
3.0
  9
$DIMCEN
 40
3.0
  9
$DIMTSZ
 40
0.0
  9
$DIMTOL
 70
0
  9
$DIMLIM
 70
0
  9
$DIMTIH
 70
0
  9
$DIMTOH
 70
0
  9
$DIMSE1
 70
0
  9
$DIMSE2
 70
0
  9
$DIMTAD
 70
1
  9
$DIMZIN
 70
3
  9
$DIMBLK
  1

  9
$DIMASO
 70
1
  9
$DIMSHO
 70
1
  9
$DIMPOST
  1

  9
$DIMAPOST
  1

  9
$DIMALT
 70
0
  9
$DIMALTD
 70
2
  9
$DIMALTF
 40
25.4
  9
$DIMLFAC
 40
1.0
  9
$DIMTOFL
 70
0
  9
$DIMTVP
 40
0.0
  9
$DIMTIX
 70
0
  9
$DIMSOXD
 70
0
  9
$DIMSAH
 70
0
  9
$DIMBLK1
  1

  9
$DIMBLK2
  1

  9
$DIMSTYLE
  2
Civil-Metric
  9
$DIMCLRD
 70
0
  9
$DIMCLRE
 70
0
  9
$DIMCLRT
 70
0
  9
$DIMTFAC
 40
1.0
  9
$DIMGAP
 40
2.0
  9
$DIMJUST
 70
0
  9
$DIMSD1
 70
0
  9
$DIMSD2
 70
0
  9
$DIMTOLJ
 70
1
  9
$DIMTZIN
 70
0
  9
$DIMALTZ
 70
0
  9
$DIMALTTZ
 70
0
  9
$DIMUPT
 70
0
  9
$DIMDEC
 70
2
  9
$DIMTDEC
 70
2
  9
$DIMALTU
 70
2
  9
$DIMALTTD
 70
2
  9
$DIMTXSTY
  7
Standard
  9
$DIMAUNIT
 70
0
  9
$DIMADEC
 70
2
  9
$DIMALTRND
 40
0.0
  9
$DIMAZIN
 70
2
  9
$DIMDSEP
 70
46
  9
$DIMATFIT
 70
3
  9
$DIMFRAC
 70
1
  9
$DIMLDRBLK
  1

  9
$DIMLUNIT
 70
2
  9
$DIMLWD
 70
-2
  9
$DIMLWE
 70
-2
  9
$DIMTMOVE
 70
0
  9
$DIMFXL
 40
1.0
  9
$DIMFXLON
 70
0
  9
$DIMJOGANG
 40
0.785398163397
  9
$DIMTFILL
 70
0
  9
$DIMTFILLCLR
 70
0
  9
$DIMARCSYM
 70
0
  9
$DIMLTYPE
  6

  9
$DIMLTEX1
  6

  9
$DIMLTEX2
  6

  9
$DIMTXTDIRECTION
 70
0
  9
$LUNITS
 70
2
  9
$LUPREC
 70
4
  9
$SKETCHINC
 40
0.1
  9
$FILLETRAD
 40
0.0
  9
$AUNITS
 70
4
  9
$AUPREC
 70
5
  9
$MENU
  1
.
  9
$ELEVATION
 40
0.0
  9
$PELEVATION
 40
0.0
  9
$THICKNESS
 40
0.0
  9
$LIMCHECK
 70
0
  9
$CHAMFERA
 40
0.0
  9
$CHAMFERB
 40
0.0
  9
$CHAMFERC
 40
0.0
  9
$CHAMFERD
 40
0.0
  9
$SKPOLY
 70
0
  9
$TDCREATE
 40
2457764.51522
  9
$TDUCREATE
 40
2455631.2632
  9
$TDUPDATE
 40
2457764.51523
  9
$TDUUPDATE
 40
2456436.43179
  9
$TDINDWG
 40
0.0003490741
  9
$TDUSRTIMER
 40
0.0003487153
  9
$USRTIMER
 70
1
  9
$ANGBASE
 50
0.0
  9
$ANGDIR
 70
0
  9
$PDMODE
 70
0
  9
$PDSIZE
 40
0.0
  9
$PLINEWID
 40
0.0
  9
$SPLFRAME
 70
0
  9
$SPLINETYPE
 70
6
  9
$SPLINESEGS
 70
8
  9
$HANDSEED
  5
700
  9
$SURFTAB1
 70
6
  9
$SURFTAB2
 70
6
  9
$SURFTYPE
 70
6
  9
$SURFU
 70
6
  9
$SURFV
 70
6
  9
$UCSBASE
  2

  9
$UCSNAME
  2

  9
$UCSORG
 10
0.0
 20
0.0
 30
0.0
  9
$UCSXDIR
 10
1.0
 20
0.0
 30
0.0
  9
$UCSYDIR
 10
0.0
 20
1.0
 30
0.0
  9
$UCSORTHOREF
  2

  9
$UCSORTHOVIEW
 70
0
  9
$UCSORGTOP
 10
0.0
 20
0.0
 30
0.0
  9
$UCSORGBOTTOM
 10
0.0
 20
0.0
 30
0.0
  9
$UCSORGLEFT
 10
0.0
 20
0.0
 30
0.0
  9
$UCSORGRIGHT
 10
0.0
 20
0.0
 30
0.0
  9
$UCSORGFRONT
 10
0.0
 20
0.0
 30
0.0
  9
$UCSORGBACK
 10
0.0
 20
0.0
 30
0.0
  9
$PUCSBASE
  2

  9
$PUCSNAME
  2

  9
$PUCSORG
 10
0.0
 20
0.0
 30
0.0
  9
$PUCSXDIR
 10
1.0
 20
0.0
 30
0.0
  9
$PUCSYDIR
 10
0.0
 20
1.0
 30
0.0
  9
$PUCSORTHOREF
  2

  9
$PUCSORTHOVIEW
 70
0
  9
$PUCSORGTOP
 10
0.0
 20
0.0
 30
0.0
  9
$PUCSORGBOTTOM
 10
0.0
 20
0.0
 30
0.0
  9
$PUCSORGLEFT
 10
0.0
 20
0.0
 30
0.0
  9
$PUCSORGRIGHT
 10
0.0
 20
0.0
 30
0.0
  9
$PUCSORGFRONT
 10
0.0
 20
0.0
 30
0.0
  9
$PUCSORGBACK
 10
0.0
 20
0.0
 30
0.0
  9
$USERI1
 70
0
  9
$USERI2
 70
0
  9
$USERI3
 70
0
  9
$USERI4
 70
0
  9
$USERI5
 70
0
  9
$USERR1
 40
0.0
  9
$USERR2
 40
0.0
  9
$USERR3
 40
0.0
  9
$USERR4
 40
0.0
  9
$USERR5
 40
0.0
  9
$WORLDVIEW
 70
1
  9
$SHADEDGE
 70
3
  9
$SHADEDIF
 70
70
  9
$TILEMODE
 70
1
  9
$MAXACTVP
 70
64
  9
$PINSBASE
 10
0.0
 20
0.0
 30
0.0
  9
$PLIMCHECK
 70
0
  9
$PEXTMIN
 10
0.628866766397
 20
0.799999952316
 30
0.0
  9
$PEXTMAX
 10
9.02886638493
 20
7.19999957085
 30
0.0
  9
$PLIMMIN
 10
-0.700541819174
 20
-0.228100386192
  9
$PLIMMAX
 10
10.2994579405
 20
8.27189937351
  9
$UNITMODE
 70
0
  9
$VISRETAIN
 70
1
  9
$PLINEGEN
 70
0
  9
$PSLTSCALE
 70
1
  9
$TREEDEPTH
 70
3020
  9
$CMLSTYLE
  2
Standard
  9
$CMLJUST
 70
0
  9
$CMLSCALE
 40
1.0
  9
$PROXYGRAPHICS
 70
1
  9
$MEASUREMENT
 70
1
  9
$CELWEIGHT
370
-1
  9
$ENDCAPS
280
0
  9
$JOINSTYLE
280
0
  9
$LWDISPLAY
290
0
  9
$INSUNITS
 70
4
  9
$HYPERLINKBASE
  1

  9
$STYLESHEET
  1

  9
$XEDIT
290
1
  9
$CEPSNTYPE
380
0
  9
$PSTYLEMODE
290
1
  9
$FINGERPRINTGUID
  2
{39DB1BDD-BC6C-46D3-A333-DFCC0DC4782D}
  9
$VERSIONGUID
  2
{69EEBB2D-7039-498F-9366-3F994E4A07E7}
  9
$EXTNAMES
290
1
  9
$PSVPSCALE
 40
0.0
  9
$OLESTARTUP
290
0
  9
$SORTENTS
280
127
  9
$INDEXCTL
280
0
  9
$HIDETEXT
280
1
  9
$XCLIPFRAME
280
0
  9
$HALOGAP
280
0
  9
$OBSCOLOR
 70
257
  9
$OBSLTYPE
280
0
  9
$INTERSECTIONDISPLAY
280
0
  9
$INTERSECTIONCOLOR
 70
257
  9
$DIMASSOC
280
2
  9
$PROJECTNAME
  1

  9
$CAMERADISPLAY
290
0
  9
$LENSLENGTH
 40
50.0
  9
$CAMERAHEIGHT
 40
0.0
  9
$STEPSPERSEC
 40
2.0
  9
$STEPSIZE
 40
6.0
  9
$3DDWFPREC
 40
2.0
  9
$PSOLWIDTH
 40
0.25
  9
$PSOLHEIGHT
 40
4.0
  9
$LOFTANG1
 40
1.57079632679
  9
$LOFTANG2
 40
1.57079632679
  9
$LOFTMAG1
 40
0.0
  9
$LOFTMAG2
 40
0.0
  9
$LOFTPARAM
 70
7
  9
$LOFTNORMALS
280
1
  9
$LATITUDE
 40
37.795
  9
$LONGITUDE
 40
-122.394
  9
$NORTHDIRECTION
 40
0.0
  9
$TIMEZONE
 70
-8000
  9
$LIGHTGLYPHDISPLAY
280
1
  9
$TILEMODELIGHTSYNCH
280
1
  9
$CMATERIAL
347
96
  9
$SOLIDHIST
280
1
  9
$SHOWHIST
280
1
  9
$DWFFRAME
280
2
  9
$DGNFRAME
280
0
  9
$REALWORLDSCALE
290
1
  9
$INTERFERECOLOR
 62
1
  9
$INTERFEREOBJVS
345
A3
  9
$INTERFEREVPVS
346
A0
  9
$CSHADOW
280
0
  9
$SHADOWPLANELOCATION
 40
0.0
  0
ENDSEC
  0
SECTION
  2
CLASSES
  0
CLASS
  1
ACDBDICTIONARYWDFLT
  2
AcDbDictionaryWithDefault
  3
ObjectDBX Classes
 90
0
 91
1
280
0
281
0
  0
CLASS
  1
DICTIONARYVAR
  2
AcDbDictionaryVar
  3
ObjectDBX Classes
 90
0
 91
15
280
0
281
0
  0
CLASS
  1
TABLESTYLE
  2
AcDbTableStyle
  3
ObjectDBX Classes
 90
4095
 91
1
280
0
281
0
  0
CLASS
  1
MATERIAL
  2
AcDbMaterial
  3
ObjectDBX Classes
 90
1153
 91
3
280
0
281
0
  0
CLASS
  1
VISUALSTYLE
  2
AcDbVisualStyle
  3
ObjectDBX Classes
 90
4095
 91
26
280
0
281
0
  0
CLASS
  1
SCALE
  2
AcDbScale
  3
ObjectDBX Classes
 90
1153
 91
17
280
0
281
0
  0
CLASS
  1
MLEADERSTYLE
  2
AcDbMLeaderStyle
  3
ACDB_MLEADERSTYLE_CLASS
 90
4095
 91
3
280
0
281
0
  0
CLASS
  1
CELLSTYLEMAP
  2
AcDbCellStyleMap
  3
ObjectDBX Classes
 90
1152
 91
2
280
0
281
0
  0
CLASS
  1
EXACXREFPANELOBJECT
  2
ExAcXREFPanelObject
  3
EXAC_ESW
 90
1025
 91
0
280
0
281
0
  0
CLASS
  1
NPOCOLLECTION
  2
AcDbImpNonPersistentObjectsCollection
  3
ObjectDBX Classes
 90
1153
 91
0
280
0
281
0
  0
CLASS
  1
LAYER_INDEX
  2
AcDbLayerIndex
  3
ObjectDBX Classes
 90
0
 91
0
280
0
281
0
  0
CLASS
  1
SPATIAL_INDEX
  2
AcDbSpatialIndex
  3
ObjectDBX Classes
 90
0
 91
0
280
0
281
0
  0
CLASS
  1
IDBUFFER
  2
AcDbIdBuffer
  3
ObjectDBX Classes
 90
0
 91
0
280
0
281
0
  0
CLASS
  1
DIMASSOC
  2
AcDbDimAssoc
  3
"AcDbDimAssoc|Product Desc:     AcDim ARX App For Dimension|Company:          Autodesk, Inc.|WEB Address:      www.autodesk.com"
 90
0
 91
0
280
0
281
0
  0
CLASS
  1
ACDBSECTIONVIEWSTYLE
  2
AcDbSectionViewStyle
  3
ObjectDBX Classes
 90
1025
 91
1
280
0
281
0
  0
CLASS
  1
ACDBDETAILVIEWSTYLE
  2
AcDbDetailViewStyle
  3
ObjectDBX Classes
 90
1025
 91
1
280
0
281
0
  0
CLASS
  1
IMAGEDEF
  2
AcDbRasterImageDef
  3
ISM
 90
0
 91
1
280
0
281
0
  0
CLASS
  1
RASTERVARIABLES
  2
AcDbRasterVariables
  3
ISM
 90
0
 91
1
280
0
281
0
  0
CLASS
  1
IMAGEDEF_REACTOR
  2
AcDbRasterImageDefReactor
  3
ISM
 90
1
 91
1
280
0
281
0
  0
CLASS
  1
IMAGE
  2
AcDbRasterImage
  3
ISM
 90
2175
 91
1
280
0
281
1
  0
CLASS
  1
PDFDEFINITION
  2
AcDbPdfDefinition
  3
ObjectDBX Classes
 90
1153
 91
1
280
0
281
0
  0
CLASS
  1
PDFUNDERLAY
  2
AcDbPdfReference
  3
ObjectDBX Classes
 90
4095
 91
1
280
0
281
1
  0
CLASS
  1
DWFDEFINITION
  2
AcDbDwfDefinition
  3
ObjectDBX Classes
 90
1153
 91
2
280
0
281
0
  0
CLASS
  1
DWFUNDERLAY
  2
AcDbDwfReference
  3
ObjectDBX Classes
 90
1153
 91
1
280
0
281
1
  0
CLASS
  1
DGNDEFINITION
  2
AcDbDgnDefinition
  3
ObjectDBX Classes
 90
1153
 91
2
280
0
281
0
  0
CLASS
  1
DGNUNDERLAY
  2
AcDbDgnReference
  3
ObjectDBX Classes
 90
1153
 91
1
280
0
281
1
  0
ENDSEC
  0
SECTION
  2
TABLES
  0
TABLE
  2
VPORT
  5
8
330
0
100
AcDbSymbolTable
 70
0
  0
ENDTAB
  0
TABLE
  2
LTYPE
  5
5F
330
0
100
AcDbSymbolTable
 70
7
  0
LTYPE
  5
14
330
5F
100
AcDbSymbolTableRecord
100
AcDbLinetypeTableRecord
  2
ByBlock
 70
0
  3

 72
65
 73
0
 40
0.0
  0
LTYPE
  5
15
330
5F
100
AcDbSymbolTableRecord
100
AcDbLinetypeTableRecord
  2
ByLayer
 70
0
  3

 72
65
 73
0
 40
0.0
  0
LTYPE
  5
16
330
5F
100
AcDbSymbolTableRecord
100
AcDbLinetypeTableRecord
  2
Continuous
 70
0
  3
Solid line
 72
65
 73
0
 40
0.0
  0
LTYPE
  5
1B1
330
5F
100
AcDbSymbolTableRecord
100
AcDbLinetypeTableRecord
  2
CENTER
 70
0
  3
Center ____ _ ____ _ ____ _ ____ _ ____ _ ____
 72
65
 73
4
 40
2.0
 49
1.25
 74
0
 49
-0.25
 74
0
 49
0.25
 74
0
 49
-0.25
 74
0
  0
LTYPE
  5
1B2
330
5F
100
AcDbSymbolTableRecord
100
AcDbLinetypeTableRecord
  2
DASHED
 70
0
  3
Dashed __ __ __ __ __ __ __ __ __ __ __ __ __ _
 72
65
 73
2
 40
0.75
 49
0.5
 74
0
 49
-0.25
 74
0
  0
LTYPE
  5
1B3
330
5F
100
AcDbSymbolTableRecord
100
AcDbLinetypeTableRecord
  2
PHANTOM
 70
0
  3
Phantom ______  __  __  ______  __  __  ______
 72
65
 73
6
 40
2.5
 49
1.25
 74
0
 49
-0.25
 74
0
 49
0.25
 74
0
 49
-0.25
 74
0
 49
0.25
 74
0
 49
-0.25
 74
0
  0
LTYPE
  5
39E
330
5F
100
AcDbSymbolTableRecord
100
AcDbLinetypeTableRecord
  2
HIDDEN
 70
0
  3
Hidden __ __ __ __ __ __ __ __ __ __ __ __ __ __
 72
65
 73
2
 40
9.525
 49
6.35
 74
0
 49
-3.175
 74
0
  0
ENDTAB
  0
TABLE
  2
LAYER
  5
2
330
0
100
AcDbSymbolTable
 70
9
  0
LAYER
  5
10
330
2
100
AcDbSymbolTableRecord
100
AcDbLayerTableRecord
  2
0
 70
0
 62
7
  6
Continuous
370
-3
390
F
347
98
348
0
  0
LAYER
  5
1B4
330
2
100
AcDbSymbolTableRecord
100
AcDbLayerTableRecord
  2
View Port
 70
0
 62
7
  6
Continuous
290
0
370
-3
390
F
347
98
348
0
  0
LAYER
  5
21D
330
2
100
AcDbSymbolTableRecord
100
AcDbLayerTableRecord
  2
Defpoints
 70
0
 62
7
  6
Continuous
290
0
370
-3
390
F
347
98
348
0
  0
LAYER
  5
5C7
330
2
100
AcDbSymbolTableRecord
100
AcDbLayerTableRecord
  2
buildings
 70
0
 62
254
  6
Continuous
290
1
390
None
  0
LAYER
  5
5C8
330
2
100
AcDbSymbolTableRecord
100
AcDbLayerTableRecord
  2
railways
 70
0
 62
250
  6
Continuous
290
1
390
None
  0
LAYER
  5
5C9
330
2
100
AcDbSymbolTableRecord
100
AcDbLayerTableRecord
  2
water
 70
0
 62
151
  6
Continuous
290
1
390
None
  0
LAYER
  5
5CA
330
2
100
AcDbSymbolTableRecord
100
AcDbLayerTableRecord
  2
parks
 70
0
 62
110
  6
Continuous
290
1
390
None
  0
LAYER
  5
5CB
330
2
100
AcDbSymbolTableRecord
100
AcDbLayerTableRecord
  2
coastline
 70
0
 62
160
  6
Continuous
290
1
390
None
  0
LAYER
  5
5CC
330
2
100
AcDbSymbolTableRecord
100
AcDbLayerTableRecord
  2
outline
 70
0
 62
7
  6
Continuous
290
1
390
52C
  0
ENDTAB
  0
TABLE
  2
STYLE
  5
3
330
0
100
AcDbSymbolTable
 70
3
  0
STYLE
  5
11
330
3
100
AcDbSymbolTableRecord
100
AcDbTextStyleTableRecord
  2
Standard
 70
0
 40
0.0
 41
1.0
 50
0.0
 71
0
 42
0.2
  3
arial.ttf
  4

  0
STYLE
  5
DC
330
3
100
AcDbSymbolTableRecord
100
AcDbTextStyleTableRecord
  2
Annotative
 70
0
 40
0.0
 41
1.0
 50
0.0
 71
0
 42
0.2
  3
arial.ttf
  4

  0
STYLE
  5
178
330
3
100
AcDbSymbolTableRecord
100
AcDbTextStyleTableRecord
  2
Notes
 70
0
 40
3.0
 41
1.0
 50
0.0
 71
0
 42
0.2
  3
arial.ttf
  4

  0
ENDTAB
  0
TABLE
  2
VIEW
  5
6
330
0
100
AcDbSymbolTable
 70
0
  0
ENDTAB
  0
TABLE
  2
UCS
  5
7
330
0
100
AcDbSymbolTable
 70
0
  0
ENDTAB
  0
TABLE
  2
APPID
  5
9
330
0
100
AcDbSymbolTable
 70
12
  0
APPID
  5
12
330
9
100
AcDbSymbolTableRecord
100
AcDbRegAppTableRecord
  2
ACAD
 70
0
  0
APPID
  5
DD
330
9
100
AcDbSymbolTableRecord
100
AcDbRegAppTableRecord
  2
AcadAnnoPO
 70
0
  0
APPID
  5
DE
330
9
100
AcDbSymbolTableRecord
100
AcDbRegAppTableRecord
  2
AcadAnnotative
 70
0
  0
APPID
  5
DF
330
9
100
AcDbSymbolTableRecord
100
AcDbRegAppTableRecord
  2
ACAD_DSTYLE_DIMJAG
 70
0
  0
APPID
  5
E0
330
9
100
AcDbSymbolTableRecord
100
AcDbRegAppTableRecord
  2
ACAD_DSTYLE_DIMTALN
 70
0
  0
APPID
  5
107
330
9
100
AcDbSymbolTableRecord
100
AcDbRegAppTableRecord
  2
ACAD_MLEADERVER
 70
0
  0
APPID
  5
1B5
330
9
100
AcDbSymbolTableRecord
100
AcDbRegAppTableRecord
  2
AcAecLayerStandard
 70
0
  0
APPID
  5
1BA
330
9
100
AcDbSymbolTableRecord
100
AcDbRegAppTableRecord
  2
ACAD_EXEMPT_FROM_CAD_STANDARDS
 70
0
  0
APPID
  5
237
330
9
100
AcDbSymbolTableRecord
100
AcDbRegAppTableRecord
  2
ACAD_DSTYLE_DIMBREAK
 70
0
  0
APPID
  5
28E
330
9
100
AcDbSymbolTableRecord
100
AcDbRegAppTableRecord
  2
ACAD_PSEXT
 70
0
  0
APPID
  5
4B0
330
9
100
AcDbSymbolTableRecord
100
AcDbRegAppTableRecord
  2
ACAD_NAV_VCDISPLAY
 70
0
  0
APPID
  5
4E3
330
9
100
AcDbSymbolTableRecord
100
AcDbRegAppTableRecord
  2
HATCHBACKGROUNDCOLOR
 70
0
  0
ENDTAB
  0
TABLE
  2
DIMSTYLE
  5
A
330
0
100
AcDbSymbolTable
 70
3
100
AcDbDimStyleTable
 71
3
340
242
340
27
340
E1
  0
DIMSTYLE
105
27
330
A
100
AcDbSymbolTableRecord
100
AcDbDimStyleTableRecord
  2
Standard
 70
0
 41
3.0
 42
2.0
 43
9.0
 44
5.0
140
3.0
141
2.0
147
2.0
340
11
1001
ACAD_DSTYLE_DIMJAG
1070
388
1040
38.0
1001
ACAD_DSTYLE_DIMBREAK
1070
391
1040
90.0
1001
ACAD_DSTYLE_DIMTALN
1070
392
1070
0
  0
DIMSTYLE
105
E1
330
A
100
AcDbSymbolTableRecord
100
AcDbDimStyleTableRecord
  2
Annotative
 70
0
 40
0.0
 41
3.0
 42
2.5
 43
10.0
 44
5.0
140
3.0
141
2.0
147
2.0
340
11
1001
AcadAnnotative
1000
AnnotativeData
1002
{
1070
1
1070
1
1002
}
1001
ACAD_DSTYLE_DIMJAG
1070
388
1040
38.0
1001
ACAD_DSTYLE_DIMBREAK
1070
391
1040
90.0
1001
ACAD_DSTYLE_DIMTALN
1070
392
1070
0
  0
DIMSTYLE
105
242
330
A
100
AcDbSymbolTableRecord
100
AcDbDimStyleTableRecord
  2
Civil-Metric
 70
0
 41
3.0
 42
1.5
 43
6.0
 44
3.0
 73
0
 74
0
 77
1
 78
3
 79
2
140
3.0
141
3.0
147
2.0
179
2
271
2
272
2
276
1
340
11
1001
ACAD_DSTYLE_DIMBREAK
1070
391
1040
3.0
1001
ACAD_DSTYLE_DIMJAG
1070
388
1040
38.0
1001
ACAD_DSTYLE_DIMTALN
1070
392
1070
0
  0
ENDTAB
  0
TABLE
  2
BLOCK_RECORD
  5
1
330
0
100
AcDbSymbolTable
 70
4
  0
BLOCK_RECORD
  5
1F
330
1
100
AcDbSymbolTableRecord
100
AcDbBlockTableRecord
  2
*Model_Space
340
530
 70
0
280
1
281
0
  0
BLOCK_RECORD
  5
58
330
1
100
AcDbSymbolTableRecord
100
AcDbBlockTableRecord
  2
*Paper_Space
340
531
 70
0
280
1
281
0
  0
BLOCK_RECORD
  5
238
330
1
100
AcDbSymbolTableRecord
100
AcDbBlockTableRecord
  2
_ArchTick
340
0
 70
0
280
1
281
0
  0
BLOCK_RECORD
  5
23C
330
1
100
AcDbSymbolTableRecord
100
AcDbBlockTableRecord
  2
_Open30
340
0
 70
0
280
1
281
0
  0
ENDTAB
  0
ENDSEC
  0
SECTION
  2
BLOCKS
  0
BLOCK
  5
23A
330
238
100
AcDbEntity
  8
0
100
AcDbBlockBegin
  2
_ArchTick
 70
0
 10
0.0
 20
0.0
 30
0.0
  3
_ArchTick
  1

  0
LWPOLYLINE
  5
239
330
238
100
AcDbEntity
  8
0
  6
ByBlock
 62
0
100
AcDbPolyline
 90
2
 70
0
 43
0.15
 10
-0.5
 20
-0.5
 10
0.5
 20
0.5
  0
ENDBLK
  5
23B
330
238
100
AcDbEntity
  8
0
100
AcDbBlockEnd
  0
BLOCK
  5
20
330
1F
100
AcDbEntity
  8
0
100
AcDbBlockBegin
  2
*Model_Space
 70
0
 10
0.0
 20
0.0
 30
0.0
  3
*Model_Space
  1

  0
ENDBLK
  5
21
330
1F
100
AcDbEntity
  8
0
100
AcDbBlockEnd
  0
BLOCK
  5
5A
330
58
100
AcDbEntity
 67
1
  8
0
100
AcDbBlockBegin
  2
*Paper_Space
 70
0
 10
0.0
 20
0.0
 30
0.0
  3
*Paper_Space
  1

  0
ENDBLK
  5
5B
330
58
100
AcDbEntity
 67
1
  8
0
100
AcDbBlockEnd
  0
BLOCK
  5
240
330
23C
100
AcDbEntity
  8
0
100
AcDbBlockBegin
  2
_Open30
 70
0
 10
0.0
 20
0.0
 30
0.0
  3
_Open30
  1

  0
LINE
  5
23D
330
23C
100
AcDbEntity
  8
0
  6
ByBlock
 62
0
370
-2
100
AcDbLine
 10
-1.0
 20
0.26794919
 30
0.0
 11
0.0
 21
0.0
 31
0.0
  0
LINE
  5
23E
330
23C
100
AcDbEntity
  8
0
  6
ByBlock
 62
0
370
-2
100
AcDbLine
 10
0.0
 20
0.0
 30
0.0
 11
-1.0
 21
-0.26794919
 31
0.0
  0
LINE
  5
23F
330
23C
100
AcDbEntity
  8
0
  6
ByBlock
 62
0
370
-2
100
AcDbLine
 10
0.0
 20
0.0
 30
0.0
 11
-1.0
 21
0.0
 31
0.0
  0
ENDBLK
  5
241
330
23C
100
AcDbEntity
  8
0
100
AcDbBlockEnd
  0
ENDSEC
  0
SECTION
  2
ENTITIES
  0
TEXT
  5
5C6
330
1F
100
AcDbEntity
  8
0
 62
0
 67
0
100
AcDbText
 10
100.0
 20
50.0
 40
2.0
  1
cadmapper.com file c9c8fb9e-3fd4-4cb9-9212-14b315964f92
 50
0.0
 51
0.0
  7
STANDARD
 41
1.0
 71
0
 72
1
 11
100.0
 21
50.0
100
AcDbText
 73
0
  0
LWPOLYLINE
  5
5CD
330
1F
100
AcDbEntity
  8
railways
 67
0
100
AcDbPolyline
 90
2
 70
0
 10
2.76618196082
 20
828.880307141
 10
41.0329061454
 20
825.15016878
  0
LWPOLYLINE
  5
5CE
330
1F
100
AcDbEntity
  8
railways
 67
0
100
AcDbPolyline
 90
2
 70
0
 10
40.0516806827
 20
818.680285517
 10
2.87940956396
 20
822.369310986
  0
LWPOLYLINE
  5
5CF
330
1F
100
AcDbEntity
  8
buildings
 67
0
100
AcDbPolyline
 90
6
 70
0
 10
38.5136280365
 20
217.043692232
 10
42.0932306005
 20
247.147859676
 10
73.1542157959
 20
244.656788409
 10
84.1008903986
 20
226.66946952
 10
82.6291770701
 20
212.27843795
 10
38.5136280365
 20
217.043692232
  0
LWPOLYLINE
  5
5D0
330
1F
100
AcDbEntity
  8
buildings
 67
0
100
AcDbPolyline
 90
7
 70
0
 10
509.488259131
 20
266.514709277
 10
516.772385178
 20
287.933431332
 10
533.588080079
 20
283.018111216
 10
538.430596625
 20
297.634837006
 10
564.716107297
 20
290.075640914
 10
545.661637023
 20
254.115401804
 10
509.488259131
 20
266.514709277
  0
LWPOLYLINE
  5
5D1
330
1F
100
AcDbEntity
  8
buildings
 67
0
100
AcDbPolyline
 90
17
 70
0
 10
416.417110944
 20
133.900784533
 10
418.106298905
 20
138.467520009
 10
421.518606696
 20
142.069265134
 10
426.09201777
 20
144.01751282
 10
431.071806811
 20
144.001631483
 10
435.627979195
 20
142.025817337
 10
439.026181984
 20
138.393463447
 10
440.585401951
 20
134.357285294
 10
440.621938896
 20
130.015750974
 10
439.133873373
 20
125.926707371
 10
436.305701545
 20
122.632638745
 10
431.986068278
 20
120.363368115
 10
427.122264613
 20
119.953553306
 10
422.473202203
 20
121.472149009
 10
418.803276609
 20
124.672074279
 10
416.672207326
 20
129.033055531
 10
416.417110944
 20
133.900784533
  0
LWPOLYLINE
  5
5D2
330
1F
100
AcDbEntity
  8
buildings
 67
0
100
AcDbPolyline
 90
5
 70
0
 10
423.985696364
 20
345.450117451
 10
426.474317367
 20
352.225045282
 10
443.679656797
 20
347.21435724
 10
441.493581245
 20
339.989080636
 10
423.985696364
 20
345.450117451
  0
LWPOLYLINE
  5
5D3
330
1F
100
AcDbEntity
  8
buildings
 67
0
100
AcDbPolyline
 90
9
 70
0
 10
511.991454947
 20
293.922124877
 10
520.003151401
 20
322.140996128
 10
545.95979514
 20
313.423193799
 10
543.298285807
 20
303.642050819
 10
539.73760574
 20
304.565908175
 10
537.845052394
 20
298.749743024
 10
524.44786343
 20
302.887524405
 10
520.678286524
 20
291.255455632
 10
511.991454947
 20
293.922124877
  0
LWPOLYLINE
  5
5D4
330
1F
100
AcDbEntity
  8
railways
 67
0
100
AcDbPolyline
 90
2
 70
0
 10
51.5120274404
 20
108.724577124
 10
15.2635392204
 20
110.297130644
  0
LWPOLYLINE
  5
5D5
330
1F
100
AcDbEntity
  8
buildings
 67
0
100
AcDbPolyline
 90
5
 70
0
 10
46.6864722471
 20
0.513142982963
 10
47.0135268731
 20
4.79668387445
 10
54.5390976194
 20
4.23020161875
 10
54.263241688
 20
0.64490357507
 10
46.6864722471
 20
0.513142982963
  0
LWPOLYLINE
  5
5D6
330
1F
100
AcDbEntity
  8
buildings
 67
0
100
AcDbPolyline
 90
5
 70
0
 10
63.3985775005
 20
0.803759719245
 10
63.9382799672
 20
10.1026338404
 10
75.0096111572
 20
9.4676180305
 10
74.5082265523
 20
0.996935747564
 10
63.3985775005
 20
0.803759719245
  0
LWPOLYLINE
  5
5D7
330
1F
100
AcDbEntity
  8
buildings
 67
0
100
AcDbPolyline
 90
5
 70
0
 10
47.9663962467
 20
8.43018748099
 10
49.3241357015
 20
21.3408652991
 10
61.4921705027
 20
20.0833722684
 10
60.1423303958
 20
7.16353640705
 10
47.9663962467
 20
8.43018748099
  0
LWPOLYLINE
  5
5D8
330
1F
100
AcDbEntity
  8
buildings
 67
0
100
AcDbPolyline
 90
8
 70
0
 10
28.6237392604
 20
138.582318371
 10
35.7304115634
 20
204.48014906
 10
96.9666793481
 20
200.012552918
 10
98.8526985582
 20
228.497286977
 10
112.097287548
 20
242.962787221
 10
125.645967074
 20
240.827287784
 10
119.242432602
 20
132.208077569
 10
28.6237392604
 20
138.582318371
  0
LWPOLYLINE
  5
5D9
330
1F
100
AcDbEntity
  8
railways
 67
0
100
AcDbPolyline
 90
8
 70
0
 10
152.614232055
 20
476.982114875
 10
141.147357947
 20
458.391377673
 10
107.422069327
 20
420.455105392
 10
58.6087677774
 20
368.355830727
 10
45.4251967726
 20
346.806231579
 10
32.8637762204
 20
311.785294234
 10
26.7363901633
 20
275.202584776
 10
14.7241210996
 20
141.310530499
  0
LWPOLYLINE
  5
5DA
330
1F
100
AcDbEntity
  8
buildings
 67
0
100
AcDbPolyline
 90
13
 70
0
 10
428.853440043
 20
472.619646823
 10
433.448311199
 20
483.624505285
 10
440.94444909
 20
486.56253339
 10
450.636220226
 20
481.86778995
 10
453.854124232
 20
474.773443335
 10
448.711061437
 20
462.280705113
 10
443.066767488
 20
460.351094491
 10
437.722440234
 20
462.592187826
 10
436.697891481
 20
466.656237308
 10
434.813815869
 20
467.506864599
 10
432.631124633
 20
465.897639358
 10
429.224824836
 20
467.307633212
 10
428.853440043
 20
472.619646823
  0
LWPOLYLINE
  5
5DB
330
1F
100
AcDbEntity
  8
water
 67
0
100
AcDbPolyline
 90
11
 70
0
 10
456.131732298
 20
483.432192716
 10
456.024520174
 20
489.613502271
 10
459.426482339
 20
493.373110534
 10
464.249273306
 20
493.475352625
 10
469.869247388
 20
492.336188203
 10
472.01828719
 20
487.83603604
 10
471.718385773
 20
481.424514378
 10
468.247296877
 20
478.072823498
 10
464.110590343
 20
477.768628352
 10
460.95795452
 20
480.205812827
 10
456.131732298
 20
483.432192716
  0
LWPOLYLINE
  5
5DC
330
1F
100
AcDbEntity
  8
parks
 67
0
100
AcDbPolyline
 90
8
 70
0
 10
393.917904896
 20
583.942879383
 10
420.205000318
 20
592.441707188
 10
438.275994694
 20
572.429756301
 10
437.550105229
 20
536.917406132
 10
434.677461503
 20
541.098165771
 10
428.537988403
 20
554.297102402
 10
406.37250877
 20
576.934419149
 10
393.917904896
 20
583.942879383
  0
LWPOLYLINE
  5
5DD
330
1F
100
AcDbEntity
  8
buildings
 67
0
100
AcDbPolyline
 90
5
 70
0
 10
860.308921603
 20
613.399608464
 10
867.32992063
 20
621.396462712
 10
874.923125498
 20
615.149416096
 10
867.850418417
 20
607.002905293
 10
860.308921603
 20
613.399608464
  0
LWPOLYLINE
  5
5DE
330
1F
100
AcDbEntity
  8
buildings
 67
0
100
AcDbPolyline
 90
7
 70
0
 10
46.8043731732
 20
948.718854174
 10
50.3118879542
 20
988.823618148
 10
77.7852060279
 20
989.301181646
 10
72.7837212905
 20
932.127208295
 10
53.8591655145
 20
933.778715498
 10
55.1012986978
 20
947.998376173
 10
46.8043731732
 20
948.718854174
  0
LWPOLYLINE
  5
5DF
330
1F
100
AcDbEntity
  8
buildings
 67
0
100
AcDbPolyline
 90
9
 70
0
 10
298.176425322
 20
695.73548963
 10
299.428796675
 20
697.765599522
 10
301.663849314
 20
698.594729638
 10
304.508870179
 20
697.351694955
 10
305.382629323
 20
694.382203495
 10
303.650929463
 20
691.813787365
 10
300.694247017
 20
691.446328594
 10
298.442288537
 20
693.378411921
 10
298.176425322
 20
695.73548963
  0
LWPOLYLINE
  5
5E0
330
1F
100
AcDbEntity
  8
buildings
 67
0
100
AcDbPolyline
 90
10
 70
0
 10
4.70387298055
 20
717.457445461
 10
23.7228989117
 20
715.22556413
 10
24.7042476413
 20
723.025070171
 10
52.3036381992
 20
720.297126635
 10
50.8291421978
 20
698.030633545
 10
22.6375764486
 20
700.469331502
 10
22.1904446144
 20
696.296043752
 10
21.9916028306
 20
693.456690212
 10
5.0905652059
 20
695.221867889
 10
4.70387298055
 20
717.457445461
  0
LWPOLYLINE
  5
5E1
330
1F
100
AcDbEntity
  8
buildings
 67
0
100
AcDbPolyline
 90
14
 70
0
 10
139.176431167
 20
590.556309866
 10
166.755890472
 20
596.986253693
 10
191.731286335
 20
630.084065041
 10
193.518953441
 20
645.949631685
 10
218.826380983
 20
648.778807428
 10
219.065120842
 20
646.198107422
 10
233.611460926
 20
647.836148234
 10
255.321049152
 20
639.872841321
 10
257.509039023
 20
617.056332777
 10
252.257158089
 20
597.885621711
 10
250.41360711
 20
577.19343299
 10
245.057644142
 20
563.571818686
 10
242.141180874
 20
559.550920134
 10
139.176431167
 20
590.556309866
  0
LWPOLYLINE
  5
5E2
330
1F
100
AcDbEntity
  8
buildings
 67
0
100
AcDbPolyline
 90
9
 70
0
 10
156.689089635
 20
484.863253522
 10
167.941098264
 20
487.699398396
 10
170.78652735
 20
479.287643893
 10
166.154032453
 20
477.60789651
 10
166.434954252
 20
476.171585287
 10
161.174533218
 20
474.471627038
 10
159.314678027
 20
480.176185924
 10
158.334578448
 20
479.889513425
 10
156.689089635
 20
484.863253522
  0
LWPOLYLINE
  5
5E3
330
1F
100
AcDbEntity
  8
buildings
 67
0
100
AcDbPolyline
 90
8
 70
0
 10
159.962343028
 20
601.824058956
 10
176.363248999
 20
638.687389845
 10
193.067139991
 20
631.325310167
 10
191.731286335
 20
630.084065041
 10
225.427368444
 20
617.066369562
 10
209.034236375
 20
580.193967493
 10
166.755890472
 20
596.986253693
 10
159.962343028
 20
601.824058956
  0
LWPOLYLINE
  5
5E4
330
1F
100
AcDbEntity
  8
buildings
 67
0
100
AcDbPolyline
 90
25
 70
0
 10
2.53356341255
 20
842.256745084
 10
6.63624290458
 20
844.05002333
 10
10.7528933013
 20
846.408922126
 10
15.7850546053
 20
849.648454238
 10
20.3559750787
 20
854.432732198
 10
24.8499948477
 20
860.071088083
 10
28.8318922983
 20
866.611742734
 10
30.7406050038
 20
871.04289149
 10
34.6885281211
 20
886.676411924
 10
35.6631672393
 20
888.171741944
 10
37.0812778667
 20
888.252185758
 10
38.0278214864
 20
887.348138999
 10
37.8729029644
 20
885.550928541
 10
37.5726010767
 20
881.408090444
 10
36.9270682929
 20
876.152786118
 10
35.8104414692
 20
872.116629124
 10
34.0001252784
 20
865.595138689
 10
31.2539369361
 20
859.364210262
 10
28.8476419634
 20
855.445098741
 10
23.611294286
 20
849.226658189
 10
19.7772069812
 20
845.338505664
 10
14.6805902185
 20
841.791020202
 10
6.38541519071
 20
837.509154825
 10
2.63518808153
 20
836.412940758
 10
2.53356341255
 20
842.256745084
  0
LWPOLYLINE
  5
5E5
330
1F
100
AcDbEntity
  8
buildings
 67
0
100
AcDbPolyline
 90
23
 70
0
 10
410.51478652
 20
8.28457356384
 10
417.851731938
 20
16.7986855689
 10
422.048059378
 20
13.2080816864
 10
441.937586197
 20
36.2960857176
 10
434.844143676
 20
42.356195237
 10
441.025130862
 20
49.5485102218
 10
446.925201655
 20
56.3919210364
 10
453.593488487
 20
50.6963473642
 10
475.657729838
 20
76.3045629789
 10
471.075815541
 20
80.213932544
 10
477.287387292
 20
87.4346451671
 10
491.607696355
 20
75.2236921391
 10
492.733182067
 20
76.5170380147
 10
517.209530442
 20
55.6211855905
 10
506.891961889
 20
43.6523995297
 10
516.866616689
 20
35.141039351
 10
510.525656362
 20
27.7786379
 10
532.584959632
 20
8.95072359778
 10
476.575121938
 20
7.97938522603
 10
476.421939136
 20
8.09836265817
 10
476.318574949
 20
7.97493535653
 10
412.181550845
 20
6.86224578274
 10
410.51478652
 20
8.28457356384
  0
LWPOLYLINE
  5
5E6
330
1F
100
AcDbEntity
  8
buildings
 67
0
100
AcDbPolyline
 90
5
 70
0
 10
443.670043791
 20
339.720001351
 10
445.869518333
 20
346.62007975
 10
463.519397648
 20
341.46830014
 10
461.185981571
 20
334.240473183
 10
443.670043791
 20
339.720001351
  0
LWPOLYLINE
  5
5E7
330
1F
100
AcDbEntity
  8
buildings
 67
0
100
AcDbPolyline
 90
10
 70
0
 10
373.154360843
 20
353.698761429
 10
374.359317858
 20
360.246871761
 10
378.890382809
 20
363.747168046
 10
390.84855736
 20
360.300559968
 10
406.57226982
 20
355.747723763
 10
408.644366968
 20
349.42384136
 10
407.573368534
 20
344.988707514
 10
401.406031178
 20
341.469331772
 10
375.193918682
 20
350.145125891
 10
373.154360843
 20
353.698761429
  0
LWPOLYLINE
  5
5E8
330
1F
100
AcDbEntity
  8
buildings
 67
0
100
AcDbPolyline
 90
5
 70
0
 10
3.12045217527
 20
808.508523303
 10
25.1685065408
 20
806.06444478
 10
22.6147333175
 20
782.523948425
 10
3.53985368216
 20
784.391586809
 10
3.12045217527
 20
808.508523303
  0
LWPOLYLINE
  5
5E9
330
1F
100
AcDbEntity
  8
buildings
 67
0
100
AcDbPolyline
 90
5
 70
0
 10
63.1526927347
 20
12.906275732
 10
63.884547517
 20
20.3295291276
 10
75.8261009004
 20
19.1610600287
 10
75.0942370119
 20
11.7378078969
 10
63.1526927347
 20
12.906275732
  0
LWPOLYLINE
  5
5EA
330
1F
100
AcDbEntity
  8
railways
 67
0
100
AcDbPolyline
 90
16
 70
0
 10
101.96813664
 20
426.320335818
 10
167.154268475
 20
500.842417554
 10
228.652196538
 20
590.381303077
 10
235.838593936
 20
612.04959955
 10
239.817314521
 20
633.067110145
 10
241.941134273
 20
664.419683926
 10
238.458204119
 20
693.01565843
 10
230.353391587
 20
714.846097406
 10
219.199099066
 20
734.503622146
 10
206.48513118
 20
751.958311605
 10
191.808421999
 20
767.640164596
 10
174.701262934
 20
779.448994859
 10
151.416838713
 20
792.759025704
 10
124.135070696
 20
801.750348124
 10
91.0309322149
 20
809.67340469
 10
40.0516806827
 20
818.680285517
  0
LWPOLYLINE
  5
5EB
330
1F
100
AcDbEntity
  8
railways
 67
0
100
AcDbPolyline
 90
5
 70
0
 10
13.2483562194
 20
226.15956749
 10
19.4664473484
 20
278.897639288
 10
24.5470306866
 20
313.676929068
 10
34.055990428
 20
339.569926632
 10
52.4317548087
 20
374.766342373
  0
LWPOLYLINE
  5
5EC
330
1F
100
AcDbEntity
  8
buildings
 67
0
100
AcDbPolyline
 90
15
 70
0
 10
18.4850235643
 20
101.641582661
 10
19.1435200086
 20
108.821815399
 10
25.0242167717
 20
108.29182907
 10
26.8564619186
 20
128.258666359
 10
21.853562461
 20
128.710941191
 10
22.3815593552
 20
134.475603296
 10
27.7495427598
 20
133.992485342
 10
40.4674450392
 20
132.791064425
 10
47.0162848383
 20
132.198298777
 10
46.3706861141
 20
125.167062207
 10
42.7193956302
 20
125.503381538
 10
41.0245714748
 20
106.998729076
 10
44.0775116
 20
106.726389626
 10
43.3986446469
 20
99.3784409026
 10
18.4850235643
 20
101.641582661
  0
LWPOLYLINE
  5
5ED
330
1F
100
AcDbEntity
  8
buildings
 67
0
100
AcDbPolyline
 90
5
 70
0
 10
91.2824754204
 20
1.28858396225
 10
91.5459624293
 20
4.10192898475
 10
101.194782847
 20
3.20040304912
 10
101.031900777
 20
1.45808032947
 10
91.2824754204
 20
1.28858396225
  0
LWPOLYLINE
  5
5EE
330
1F
100
AcDbEntity
  8
buildings
 67
0
100
AcDbPolyline
 90
19
 70
0
 10
56.8866101005
 20
125.256945641
 10
57.1122031387
 20
133.247872421
 10
96.2620795793
 20
132.124736525
 10
96.081835916
 20
125.984907564
 10
94.4056978617
 20
126.030152716
 10
94.2574330345
 20
121.174006811
 10
91.875043633
 20
121.24416553
 10
91.6823688654
 20
114.481152491
 10
76.9224835996
 20
114.91259322
 10
76.8714524921
 20
112.940524708
 10
73.7907286109
 20
113.026431158
 10
73.9388209634
 20
117.891873065
 10
66.3881272511
 20
118.113911753
 10
66.4360933994
 20
119.369979187
 10
64.1469123836
 20
119.432453608
 10
64.235409433
 20
122.372168403
 10
61.6979408573
 20
122.439623097
 10
61.77561659
 20
125.109507042
 10
56.8866101005
 20
125.256945641
  0
LWPOLYLINE
  5
5EF
330
1F
100
AcDbEntity
  8
parks
 67
0
100
AcDbPolyline
 90
9
 70
0
 10
630.526041685
 20
101.341859574
 10
638.529649839
 20
214.190823805
 10
654.199387134
 20
237.353975653
 10
656.987851083
 20
245.184704642
 10
658.519333969
 20
249.460419186
 10
677.499139957
 20
269.156932188
 10
640.638853746
 20
75.9011194427
 10
631.709478426
 20
88.549729866
 10
630.526041685
 20
101.341859574
  0
LWPOLYLINE
  5
5F0
330
1F
100
AcDbEntity
  8
parks
 67
0
100
AcDbPolyline
 90
8
 70
0
 10
994.586725356
 20
27.2997019324
 10
999.033998584
 20
50.9004754191
 10
1005.17818486
 20
73.7030634941
 10
1023.08798561
 20
123.905619289
 10
1023.65341665
 20
127.12186581
 10
1025.32849335
 20
30.2249450712
 10
1023.82491061
 20
22.9516614582
 10
994.586725356
 20
27.2997019324
  0
LWPOLYLINE
  5
5F1
330
1F
100
AcDbEntity
  8
parks
 67
0
100
AcDbPolyline
 90
21
 70
0
 10
361.873534473
 20
5.98916758038
 10
362.348922089
 20
6.31923999684
 10
393.727966979
 20
28.0955661191
 10
439.498276598
 20
76.7558798855
 10
478.975911101
 20
133.182212098
 10
527.493329125
 20
205.078897135
 10
552.883754295
 20
188.289911007
 10
549.895877718
 20
176.308780887
 10
548.95536966
 20
164.344548018
 10
550.146159404
 20
154.713870088
 10
552.974531007
 20
138.76104899
 10
557.924220699
 20
122.584658637
 10
564.30084836
 20
108.208920592
 10
566.351224388
 20
103.576869402
 10
573.389363528
 20
89.9657315863
 10
567.227923043
 20
63.2945417948
 10
561.364334526
 20
50.3151636492
 10
551.385383341
 20
40.2862827908
 10
531.116379168
 20
31.4643749176
 10
538.724911687
 20
9.05718429433
 10
361.873534473
 20
5.98916758038
  0
LWPOLYLINE
  5
5F2
330
1F
100
AcDbEntity
  8
railways
 67
0
100
AcDbPolyline
 90
8
 70
0
 10
15.1443619714
 20
117.149108849
 10
62.8247776817
 20
112.054726135
 10
170.630956048
 20
94.0773888831
 10
218.670060645
 20
82.1923498563
 10
262.700588354
 20
68.4336424293
 10
301.162544806
 20
51.9653087184
 10
339.642815375
 20
29.072218528
 10
369.771530624
 20
6.1262521944
  0
LWPOLYLINE
  5
5F3
330
1F
100
AcDbEntity
  8
railways
 67
0
100
AcDbPolyline
 90
2
 70
0
 10
52.4317548087
 20
374.766342373
 10
101.96813664
 20
426.320335818
  0
LWPOLYLINE
  5
5F4
330
1F
100
AcDbEntity
  8
parks
 67
0
100
AcDbPolyline
 90
33
 70
0
 10
86.8566370891
 20
489.339972321
 10
103.217215656
 20
577.13729827
 10
109.086384432
 20
595.584295047
 10
245.057644142
 20
563.571818686
 10
254.489707365
 20
649.779379064
 10
182.23175325
 20
651.378849263
 10
175.957600454
 20
689.060043227
 10
167.862987198
 20
819.405885394
 10
196.130043799
 20
821.804912471
 10
210.716463762
 20
851.543338834
 10
312.977592388
 20
831.732004996
 10
343.535359996
 20
889.400528095
 10
394.753725092
 20
937.025392978
 10
412.733565964
 20
977.537391855
 10
403.233553098
 20
994.952346494
 10
441.178211781
 20
995.610501464
 10
438.460919312
 20
907.904656627
 10
426.636767922
 20
811.911629354
 10
439.812535745
 20
724.432172784
 10
476.70173006
 20
673.542454482
 10
581.032746757
 20
632.598961483
 10
618.107041303
 20
626.472472704
 10
663.8100238
 20
653.735608554
 10
741.446588833
 20
753.62938131
 10
775.74369812
 20
722.44261772
 10
778.854476358
 20
710.771713548
 10
780.03830604
 20
678.676988837
 10
790.070510461
 20
656.554083946
 10
790.040160753
 20
629.62661383
 10
768.415624175
 20
602.687970313
 10
476.684624579
 20
207.600872271
 10
110.725730466
 20
386.574759481
 10
86.8566370891
 20
489.339972321
  0
LWPOLYLINE
  5
5F5
330
1F
100
AcDbEntity
  8
railways
 67
0
100
AcDbPolyline
 90
2
 70
0
 10
110.950862878
 20
416.46250479
 10
61.9747221806
 20
365.253026694
  0
LWPOLYLINE
  5
5F6
330
1F
100
AcDbEntity
  8
buildings
 67
0
100
AcDbPolyline
 90
9
 70
0
 10
47.1014099892
 20
31.8554730904
 10
48.9504304075
 20
55.7649620026
 10
66.3397634273
 20
54.4308924088
 10
66.7765112375
 20
60.0916865109
 10
88.9966665974
 20
58.3859692044
 10
88.5099952841
 20
52.0269570071
 10
107.79416025
 20
50.5583908809
 10
105.995067692
 20
27.3378431792
 10
47.1014099892
 20
31.8554730904
  0
LWPOLYLINE
  5
5F7
330
1F
100
AcDbEntity
  8
parks
 67
0
100
AcDbPolyline
 90
113
 70
0
 10
497.388965166
 20
228.462037329
 10
503.941904353
 20
237.473860195
 10
524.521857037
 20
223.019003015
 10
545.69060545
 20
251.549656798
 10
567.88053805
 20
293.21742805
 10
585.094993627
 20
331.52600705
 10
597.743252392
 20
356.72892436
 10
615.704526217
 20
380.601294963
 10
652.244514275
 20
423.614639198
 10
689.33338747
 20
481.979005781
 10
693.045278868
 20
488.449607458
 10
695.512855254
 20
493.317999173
 10
696.082184864
 20
494.034506473
 10
728.111233101
 20
535.556087769
 10
754.097864363
 20
566.791645023
 10
769.120812687
 20
584.355263218
 10
786.506036258
 20
605.260525934
 10
796.198496186
 20
620.23996844
 10
802.477323334
 20
635.262596715
 10
802.898343333
 20
642.308452416
 10
799.353754741
 20
650.364239359
 10
794.038212879
 20
662.145756674
 10
787.274430721
 20
674.692532691
 10
780.03830604
 20
678.676988837
 10
777.153587856
 20
681.769772404
 10
776.021869001
 20
683.070495593
 10
780.718673677
 20
691.352611692
 10
778.854476358
 20
710.771713548
 10
775.74369812
 20
722.44261772
 10
773.06385161
 20
730.727218532
 10
763.646974815
 20
740.15042517
 10
747.802445141
 20
751.210367827
 10
741.446588833
 20
753.62938131
 10
753.235673506
 20
776.994742542
 10
775.764075053
 20
834.6416587
 10
795.584928754
 20
889.191907836
 10
811.617108654
 20
934.982933586
 10
825.305813748
 20
1002.2647149
 10
965.012483336
 20
1004.68099309
 10
964.947507606
 20
1002.71145989
 10
967.555633948
 20
990.49253522
 10
969.163547108
 20
967.479978748
 10
973.066995371
 20
925.650835063
 10
976.686308102
 20
894.872056681
 10
990.810003012
 20
776.046475789
 10
990.810962214
 20
762.080948294
 10
984.370778466
 20
741.114278579
 10
968.098082148
 20
714.594086287
 10
933.24373404
 20
666.357912902
 10
937.368737864
 20
659.269810312
 10
930.791615979
 20
651.61541623
 10
905.852544431
 20
673.675888263
 10
870.289714876
 20
630.550384892
 10
859.638186119
 20
617.646476283
 10
834.37775631
 20
587.000277505
 10
836.276129778
 20
585.32229948
 10
843.809707854
 20
578.934776362
 10
845.225900678
 20
577.778438041
 10
853.804995927
 20
588.07097063
 10
857.245269473
 20
585.592146882
 10
859.453192329
 20
588.438336203
 10
857.500613789
 20
574.420398335
 10
846.217776683
 20
564.834221758
 10
837.528106299
 20
548.830809106
 10
826.499196109
 20
514.265333365
 10
807.224462839
 20
484.2247117
 10
784.000630405
 20
457.388573026
 10
778.363938701
 20
446.951643209
 10
759.075513259
 20
410.550847311
 10
752.862558391
 20
401.145295756
 10
758.3564219
 20
397.428240971
 10
757.27574666
 20
395.782383719
 10
760.769777456
 20
393.332421233
 10
742.351763949
 20
369.387351986
 10
732.884839964
 20
356.633953794
 10
722.554085121
 20
350.318387663
 10
711.397033569
 20
333.044768685
 10
715.260835545
 20
330.740697013
 10
709.890006273
 20
322.428261577
 10
651.3159543
 20
244.853988323
 10
614.786860491
 20
276.001575788
 10
598.764412988
 20
261.107460733
 10
583.99008699
 20
246.253544745
 10
604.546500828
 20
225.094258612
 10
613.565042064
 20
215.813086268
 10
615.385848013
 20
214.133809053
 10
625.6256061
 20
204.650637415
 10
620.455047327
 20
130.63268553
 10
617.404234724
 20
58.2786028087
 10
617.240725949
 20
54.2869288391
 10
607.894807864
 20
68.5926405923
 10
604.64068387
 20
66.6022592979
 10
601.9821785
 20
65.1521857372
 10
598.420241651
 20
64.8115107147
 10
590.241425398
 20
69.0584060694
 10
588.468856288
 20
72.4307491905
 10
582.303554368
 20
79.0928258579
 10
579.531558062
 20
82.8476576298
 10
573.389363528
 20
89.9657315863
 10
566.351224388
 20
103.576869402
 10
564.30084836
 20
108.208920592
 10
557.924220699
 20
122.584658637
 10
552.974531007
 20
138.76104899
 10
550.146159404
 20
154.713870088
 10
548.95536966
 20
164.344548018
 10
549.895877718
 20
176.308780887
 10
552.883754295
 20
188.289911007
 10
527.493329125
 20
205.078897135
 10
521.679143241
 20
208.929734488
 10
516.927730122
 20
212.771102832
 10
513.183489253
 20
215.783815616
 10
512.082459554
 20
216.657331481
 10
497.388965166
 20
228.462037329
  0
LWPOLYLINE
  5
5F8
330
1F
100
AcDbEntity
  8
buildings
 67
0
100
AcDbPolyline
 90
9
 70
0
 10
406.948245899
 20
463.276347483
 10
410.563506451
 20
469.940652091
 10
420.428597494
 20
464.644576337
 10
419.504343685
 20
462.92700775
 10
420.522062269
 20
462.386783581
 10
421.401403687
 20
464.010592898
 10
425.973865927
 20
461.551562269
 10
422.403672257
 20
454.971727686
 10
406.948245899
 20
463.276347483
  0
LWPOLYLINE
  5
5F9
330
1F
100
AcDbEntity
  8
parks
 67
0
100
AcDbPolyline
 90
15
 70
0
 10
834.37775631
 20
587.000277505
 10
859.638186119
 20
617.646476283
 10
870.289714876
 20
630.550384892
 10
905.852544431
 20
673.675888263
 10
930.791615979
 20
651.61541623
 10
874.089103838
 20
585.344278231
 10
863.421510778
 20
593.546495891
 10
860.363440948
 20
589.625629748
 10
859.453192329
 20
588.438336203
 10
857.245269473
 20
585.592146882
 10
853.804995927
 20
588.07097063
 10
845.225900678
 20
577.778438041
 10
843.809707854
 20
578.934776362
 10
836.276129778
 20
585.32229948
 10
834.37775631
 20
587.000277505
  0
LWPOLYLINE
  5
5FA
330
1F
100
AcDbEntity
  8
buildings
 67
0
100
AcDbPolyline
 90
6
 70
0
 10
876.917537717
 20
334.431536346
 10
895.716913921
 20
374.905432901
 10
899.477665038
 20
373.175980004
 10
937.524470156
 20
355.591435524
 10
918.993586501
 20
314.834034907
 10
876.917537717
 20
334.431536346
  0
LWPOLYLINE
  5
5FB
330
1F
100
AcDbEntity
  8
buildings
 67
0
100
AcDbPolyline
 90
6
 70
0
 10
726.469554685
 20
12.3105751523
 10
759.236659233
 20
85.8679798818
 10
872.817924977
 20
328.400603138
 10
915.793264942
 20
308.827973958
 10
777.264299856
 20
13.1901499145
 10
726.469554685
 20
12.3105751523
  0
LWPOLYLINE
  5
5FC
330
1F
100
AcDbEntity
  8
parks
 67
0
100
AcDbPolyline
 90
10
 70
0
 10
1005.16809037
 20
34.8094593114
 10
1008.0635545
 20
37.3606752902
 10
1010.26885004
 20
40.801861621
 10
1011.41540934
 20
45.8146968326
 10
1015.21068269
 20
45.220155484
 10
1014.18882534
 20
40.1722848429
 10
1014.1757682
 20
36.8898740029
 10
1015.58812643
 20
33.7064902051
 10
1008.81342727
 20
32.1202839874
 10
1005.16809037
 20
34.8094593114
  0
LWPOLYLINE
  5
5FD
330
1F
100
AcDbEntity
  8
parks
 67
0
100
AcDbPolyline
 90
10
 70
0
 10
1008.26506318
 20
58.0056636697
 10
1013.50701456
 20
65.702033611
 10
1017.80441311
 20
74.6465952559
 10
1021.52068432
 20
84.4551177039
 10
1023.88441537
 20
92.6410051836
 10
1024.21912733
 20
94.3973727287
 10
1024.73356585
 20
64.6390229799
 10
1021.71301949
 20
62.5617142138
 10
1020.07667396
 20
55.8202882516
 10
1008.26506318
 20
58.0056636697
  0
LWPOLYLINE
  5
5FE
330
1F
100
AcDbEntity
  8
buildings
 67
0
100
AcDbPolyline
 90
5
 70
0
 10
836.276129778
 20
585.32229948
 10
860.308921603
 20
613.399608464
 10
867.850418417
 20
607.002905293
 10
843.809707854
 20
578.934776362
 10
836.276129778
 20
585.32229948
  0
LWPOLYLINE
  5
5FF
330
1F
100
AcDbEntity
  8
buildings
 67
0
100
AcDbPolyline
 90
5
 70
0
 10
630.520205997
 20
427.106219521
 10
638.647700802
 20
439.715641584
 10
649.942868217
 20
430.213528597
 10
640.166708203
 20
418.747099063
 10
630.520205997
 20
427.106219521
  0
LWPOLYLINE
  5
600
330
1F
100
AcDbEntity
  8
buildings
 67
0
100
AcDbPolyline
 90
9
 70
0
 10
762.217821478
 20
689.628363323
 10
764.083463616
 20
690.739225171
 10
766.470140373
 20
687.740101531
 10
767.886191101
 20
688.83388188
 10
772.094821847
 20
683.644079006
 10
767.682351492
 20
679.99727344
 10
763.113770797
 20
684.920499895
 10
764.606107678
 20
686.536288199
 10
762.217821478
 20
689.628363323
  0
LWPOLYLINE
  5
601
330
1F
100
AcDbEntity
  8
buildings
 67
0
100
AcDbPolyline
 90
5
 70
0
 10
814.595250292
 20
734.198228943
 10
816.751782696
 20
749.428440015
 10
828.065315361
 20
747.839004002
 10
825.901011159
 20
732.608661954
 10
814.595250292
 20
734.198228943
  0
LWPOLYLINE
  5
602
330
1F
100
AcDbEntity
  8
railways
 67
0
100
AcDbPolyline
 90
8
 70
0
 10
13.9753661075
 20
184.359954905
 10
22.2249898321
 20
275.486749161
 10
28.5707609777
 20
312.445181285
 10
40.8919648934
 20
346.113734575
 10
55.7240439769
 20
372.331717071
 10
104.704067496
 20
424.210751432
 10
136.445739357
 20
459.351050387
 10
143.838890326
 20
470.441888981
  0
LWPOLYLINE
  5
603
330
1F
100
AcDbEntity
  8
railways
 67
0
100
AcDbPolyline
 90
5
 70
0
 10
61.9747221806
 20
365.253026694
 10
48.6580440869
 20
342.882891766
 10
40.0065831152
 20
310.049900813
 10
32.0112419688
 20
274.727138474
 10
16.7413103983
 20
25.3350511654
  0
LWPOLYLINE
  5
604
330
1F
100
AcDbEntity
  8
parks
 67
0
100
AcDbPolyline
 90
14
 70
0
 10
85.2213641829
 20
819.474811648
 10
95.2477418684
 20
923.201048563
 10
101.679254377
 20
989.716462805
 10
159.883419033
 20
990.727806141
 10
159.429805329
 20
964.195468055
 10
157.626754809
 20
902.778691984
 10
158.696007043
 20
868.915323546
 10
159.21415861
 20
852.485445055
 10
148.947156287
 20
845.166192791
 10
143.52157291
 20
806.531668543
 10
157.52746133
 20
784.376110876
 10
148.969165168
 20
790.326908765
 10
120.294047268
 20
811.651068771
 10
85.2213641829
 20
819.474811648
  0
LWPOLYLINE
  5
605
330
1F
100
AcDbEntity
  8
buildings
 67
0
100
AcDbPolyline
 90
5
 70
0
 10
324.849989403
 20
331.65160539
 10
333.300953325
 20
354.643508495
 10
367.290865864
 20
342.504483572
 10
359.193898343
 20
317.882308936
 10
324.849989403
 20
331.65160539
  0
LWPOLYLINE
  5
606
330
1F
100
AcDbEntity
  8
water
 67
0
100
AcDbPolyline
 90
77
 70
0
 10
1021.1833445
 20
270.010316969
 10
883.897906697
 20
18.8486942993
 10
869.874903624
 20
26.0165455858
 10
857.889293517
 20
14.5857152767
 10
792.714948442
 20
13.4576434223
 10
946.488052325
 20
348.577716059
 10
938.614438266
 20
352.216525532
 10
939.627999242
 20
354.605038072
 10
937.524470156
 20
355.591435524
 10
899.477665038
 20
373.175980004
 10
901.950491236
 20
378.193173305
 10
885.186615512
 20
385.945921448
 10
882.512475495
 20
380.460341826
 10
889.463756233
 20
377.233327343
 10
838.858065943
 20
268.482565887
 10
809.334474699
 20
205.024251158
 10
773.836407471
 20
128.72413984
 10
754.842293177
 20
87.9118315056
 10
737.397080511
 20
95.6153115029
 10
733.537021069
 20
94.1258726008
 10
730.736529847
 20
87.8849131372
 10
732.057527844
 20
84.1607003887
 10
738.053672031
 20
81.4379505226
 10
717.027302905
 20
34.3792980569
 10
705.825693559
 20
43.8830871182
 10
696.273297272
 20
60.7143552634
 10
692.931283762
 20
75.8865755554
 10
692.89392633
 20
86.5507248668
 10
694.770411508
 20
95.9834985062
 10
700.960176677
 20
94.6216315925
 10
704.157153889
 20
96.7783522266
 10
705.557264641
 20
103.264706658
 10
703.606528038
 20
106.178381604
 10
688.356350355
 20
110.293578394
 10
718.601096814
 20
235.949775339
 10
729.216107092
 20
280.038699898
 10
714.312106024
 20
285.647624805
 10
722.582120712
 20
315.107398777
 10
709.890006273
 20
322.428261577
 10
715.260835545
 20
330.740697013
 10
711.397033569
 20
333.044768685
 10
722.554085121
 20
350.318387663
 10
732.884839964
 20
356.633953794
 10
742.351763949
 20
369.387351986
 10
760.769777456
 20
393.332421233
 10
757.27574666
 20
395.782383719
 10
758.3564219
 20
397.428240971
 10
752.862558391
 20
401.145295756
 10
759.075513259
 20
410.550847311
 10
778.363938701
 20
446.951643209
 10
784.000630405
 20
457.388573026
 10
807.224462839
 20
484.2247117
 10
826.499196109
 20
514.265333365
 10
837.528106299
 20
548.830809106
 10
846.217776683
 20
564.834221758
 10
857.500613789
 20
574.420398335
 10
859.453192329
 20
588.438336203
 10
860.363440948
 20
589.625629748
 10
863.421510778
 20
593.546495891
 10
874.089103838
 20
585.344278231
 10
885.005418876
 20
598.63396966
 10
911.372292753
 20
629.001624648
 10
930.791615979
 20
651.61541623
 10
937.368737864
 20
659.269810312
 10
933.24373404
 20
666.357912902
 10
968.098082148
 20
714.594086287
 10
984.370778466
 20
741.114278579
 10
990.810962214
 20
762.080948294
 10
990.810003012
 20
776.046475789
 10
976.686308102
 20
894.872056681
 10
973.066995371
 20
925.650835063
 10
969.163547108
 20
967.479978748
 10
967.555633948
 20
990.49253522
 10
964.947507606
 20
1002.71145989
 10
965.012483336
 20
1004.68099309
 10
1008.47162383
 20
1005.43221614
 10
1021.1833445
 20
270.010316969
  0
LWPOLYLINE
  5
607
330
1F
100
AcDbEntity
  8
water
 67
0
100
AcDbPolyline
 90
27
 70
0
 10
825.305813748
 20
1002.2647149
 10
811.617108654
 20
934.982933586
 10
795.584928754
 20
889.191907836
 10
775.764075053
 20
834.6416587
 10
753.235673506
 20
776.994742542
 10
741.446588833
 20
753.62938131
 10
730.737824786
 20
732.384049922
 10
721.889627131
 20
717.921253659
 10
693.498661491
 20
684.412478134
 10
647.208208001
 20
651.197909109
 10
614.254245684
 20
637.981710608
 10
577.786193854
 20
634.18844053
 10
524.358910319
 20
646.688648858
 10
493.051261592
 20
665.132338107
 10
472.718168999
 20
688.108417532
 10
447.299374665
 20
728.364908324
 10
432.28418104
 20
762.693017772
 10
430.986952063
 20
782.028944048
 10
431.009574642
 20
800.848479489
 10
440.77830592
 20
843.165726019
 10
443.714730057
 20
858.121339532
 10
447.088662206
 20
877.817217767
 10
454.725567634
 20
920.515873748
 10
455.46897912
 20
952.79279875
 10
454.400573245
 20
980.854205595
 10
451.695207244
 20
995.792893286
 10
825.305813748
 20
1002.2647149
  0
LWPOLYLINE
  5
608
330
1F
100
AcDbEntity
  8
water
 67
0
100
AcDbPolyline
 90
10
 70
0
 10
33.306840227
 20
988.527982827
 10
32.4267269002
 20
975.275066724
 10
32.2890936823
 20
973.375878805
 10
27.4230778692
 20
900.348344309
 10
20.5470229005
 20
883.594635028
 10
18.5496142936
 20
879.803505086
 10
14.7260217371
 20
875.311162661
 10
2.11800747708
 20
866.15287255
 10
0.0
 20
987.948850228
 10
33.306840227
 20
988.527982827
  0
LWPOLYLINE
  5
609
330
1F
100
AcDbEntity
  8
buildings
 67
0
100
AcDbPolyline
 90
5
 70
0
 10
386.085864678
 20
302.653968481
 10
391.386813629
 20
318.106258242
 10
398.913997314
 20
315.670620479
 10
393.180908252
 20
300.089962792
 10
386.085864678
 20
302.653968481
  0
LWPOLYLINE
  5
60A
330
1F
100
AcDbEntity
  8
parks
 67
0
100
AcDbPolyline
 90
16
 70
0
 10
138.19687045
 20
545.155677422
 10
144.868923202
 20
545.968970699
 10
153.503767619
 20
545.421662801
 10
161.10987128
 20
542.922485681
 10
167.344430887
 20
539.004770723
 10
172.169163747
 20
534.532570777
 10
172.624692039
 20
528.403796286
 10
175.748637907
 20
520.926680725
 10
179.741381058
 20
514.338671634
 10
179.608735513
 20
511.705029344
 10
169.601851133
 20
500.15040052
 10
168.92964821
 20
498.214032313
 10
184.059268781
 20
449.299698296
 10
168.019413588
 20
443.907110013
 10
162.179424183
 20
452.350513832
 10
138.19687045
 20
545.155677422
  0
LWPOLYLINE
  5
60B
330
1F
100
AcDbEntity
  8
parks
 67
0
100
AcDbPolyline
 90
22
 70
0
 10
125.597305814
 20
1.88511210401
 10
134.176348124
 20
114.178439851
 10
141.024916219
 20
204.339501232
 10
144.965876386
 20
223.487527966
 10
152.596630713
 20
241.87214956
 10
153.847129539
 20
244.897140574
 10
163.694637059
 20
277.211510976
 10
159.567909548
 20
292.853451868
 10
150.513136469
 20
304.634759044
 10
140.050010057
 20
318.902048225
 10
174.759389048
 20
295.274560136
 10
233.890583126
 20
258.85869487
 10
253.028017487
 20
248.442575627
 10
376.297194532
 20
204.780649402
 10
398.542782035
 20
196.705501505
 10
429.436249799
 20
177.920271407
 10
465.368265124
 20
151.700260459
 10
476.072440674
 20
139.147660895
 10
455.165617818
 20
108.064414133
 10
397.787854129
 20
39.0725836931
 10
351.843794405
 20
5.81507306732
 10
125.597305814
 20
1.88511210401
  0
LWPOLYLINE
  5
60C
330
1F
100
AcDbEntity
  8
buildings
 67
0
100
AcDbPolyline
 90
16
 70
0
 10
630.526041685
 20
101.341859574
 10
638.529649839
 20
214.190823805
 10
654.199387134
 20
237.353975653
 10
656.987851083
 20
245.184704642
 10
658.519333969
 20
249.460419186
 10
677.499139957
 20
269.156932188
 10
700.862594894
 20
293.708494063
 10
700.442454493
 20
231.088562
 10
691.308164767
 20
178.545472956
 10
663.456654031
 20
63.8650520765
 10
650.664422101
 20
66.6838589418
 10
646.990801264
 20
68.3124419218
 10
644.276608709
 20
70.9711292307
 10
640.638853746
 20
75.9011194427
 10
631.709478426
 20
88.549729866
 10
630.526041685
 20
101.341859574
  0
LWPOLYLINE
  5
60D
330
1F
100
AcDbEntity
  8
parks
 67
0
100
AcDbPolyline
 90
14
 70
0
 10
548.95536966
 20
164.344548018
 10
549.895877718
 20
176.308780887
 10
552.883754295
 20
188.289911007
 10
573.926403636
 20
232.597016354
 10
583.99008699
 20
246.253544745
 10
604.546500828
 20
225.094258612
 10
613.565042064
 20
215.813086268
 10
609.288645447
 20
110.792507396
 10
569.02761245
 20
111.15464321
 10
564.30084836
 20
108.208920592
 10
557.924220699
 20
122.584658637
 10
552.974531007
 20
138.76104899
 10
550.146159404
 20
154.713870088
 10
548.95536966
 20
164.344548018
  0
LWPOLYLINE
  5
60E
330
1F
100
AcDbEntity
  8
water
 67
0
100
AcDbPolyline
 90
51
 70
0
 10
449.640395068
 20
587.578055803
 10
449.56220245
 20
592.086228365
 10
450.129810062
 20
594.690214573
 10
452.304214919
 20
598.568001269
 10
456.089225155
 20
601.711285878
 10
461.399850294
 20
603.653692603
 10
467.524000365
 20
604.754789301
 10
490.522621035
 20
606.083418351
 10
495.9656866
 20
607.098302335
 10
500.709130016
 20
609.095937708
 10
504.505943069
 20
612.00695669
 10
506.820554742
 20
610.931329558
 10
506.558391754
 20
607.709678081
 10
506.941589606
 20
603.950634538
 10
508.333111683
 20
598.851566615
 10
510.665944145
 20
593.145853591
 10
519.150809205
 20
575.747647805
 10
520.786448108
 20
571.331564343
 10
521.553428476
 20
566.463414863
 10
521.488001121
 20
562.631507029
 10
519.34908882
 20
558.047704825
 10
517.39812817
 20
555.150097621
 10
513.418636358
 20
552.486961016
 10
509.15956524
 20
551.18578034
 10
505.199060823
 20
550.559230197
 10
497.432869053
 20
550.666316723
 10
481.397959525
 20
552.12698575
 10
475.284820882
 20
550.840127113
 10
473.134909975
 20
549.575507179
 10
471.67607822
 20
547.820780003
 10
468.404798185
 20
540.102497412
 10
471.306541685
 20
536.926416789
 10
473.104730928
 20
532.978059294
 10
473.972233387
 20
528.576555329
 10
473.030582425
 20
524.283146074
 10
471.98238998
 20
522.107832313
 10
470.225178442
 20
520.115479941
 10
454.149878256
 20
510.938489942
 10
451.737730424
 20
526.582375171
 10
451.423831438
 20
530.816817874
 10
452.621831505
 20
534.640478111
 10
454.287021598
 20
538.360665308
 10
457.655358005
 20
540.929546052
 10
462.130715328
 20
541.834687726
 10
466.628626236
 20
540.99219491
 10
469.919943877
 20
548.896785609
 10
470.66398331
 20
552.061710221
 10
470.469081064
 20
554.354935333
 10
455.246148997
 20
575.634377452
 10
451.856608994
 20
581.442624684
 10
449.640395068
 20
587.578055803
  0
LWPOLYLINE
  5
60F
330
1F
100
AcDbEntity
  8
water
 67
0
100
AcDbPolyline
 90
17
 70
0
 10
498.321577164
 20
567.855124035
 10
498.532178081
 20
566.445480511
 10
499.363280838
 20
565.037298234
 10
500.56143017
 20
563.933016125
 10
503.300438022
 20
563.43192687
 10
504.782808664
 20
563.829549593
 10
506.437260019
 20
565.039081299
 10
508.048035816
 20
568.767611965
 10
508.140984357
 20
574.143464427
 10
507.015652096
 20
578.205772316
 10
506.378226847
 20
579.180307612
 10
505.809102943
 20
579.347101607
 10
504.760807755
 20
578.966303587
 10
503.971788103
 20
578.394743138
 10
500.446657182
 20
574.130926575
 10
498.896950288
 20
570.459241419
 10
498.321577164
 20
567.855124035
  0
LWPOLYLINE
  5
610
330
1F
100
AcDbEntity
  8
water
 67
0
100
AcDbPolyline
 90
16
 70
0
 10
485.344224963
 20
589.805812266
 10
485.822468549
 20
587.275752637
 10
487.867363103
 20
583.861656294
 10
490.573517279
 20
581.677063493
 10
494.31152484
 20
580.821379698
 10
498.45717702
 20
581.506932028
 10
502.023086322
 20
583.419063577
 10
504.2563014
 20
587.037513312
 10
504.429333828
 20
591.373378948
 10
503.575827356
 20
594.073594477
 10
499.868565497
 20
600.313354142
 10
496.958433297
 20
599.946762246
 10
490.431957912
 20
596.997705019
 10
487.122725293
 20
594.597226516
 10
485.546084013
 20
592.031533606
 10
485.344224963
 20
589.805812266
  0
LWPOLYLINE
  5
611
330
1F
100
AcDbEntity
  8
water
 67
0
100
AcDbPolyline
 90
15
 70
0
 10
466.858081895
 20
582.325770909
 10
468.002585701
 20
580.737066403
 10
469.878764173
 20
579.89559265
 10
471.551430083
 20
580.05477277
 10
474.37484134
 20
581.396158524
 10
477.10546467
 20
585.404459161
 10
478.258459349
 20
590.482563864
 10
478.201719138
 20
593.754474458
 10
477.633739113
 20
594.302504509
 10
476.76300264
 20
594.417576393
 10
474.539602011
 20
593.811840705
 10
470.74812476
 20
590.594067427
 10
467.708476164
 20
586.961623449
 10
466.830354565
 20
583.924545463
 10
466.858081895
 20
582.325770909
  0
LWPOLYLINE
  5
612
330
1F
100
AcDbEntity
  8
buildings
 67
0
100
AcDbPolyline
 90
5
 70
0
 10
578.724796584
 20
487.389431266
 10
583.189686932
 20
489.34500853
 10
585.968027691
 20
484.335052647
 10
581.31282873
 20
482.171622436
 10
578.724796584
 20
487.389431266
  0
LWPOLYLINE
  5
613
330
1F
100
AcDbEntity
  8
buildings
 67
0
100
AcDbPolyline
 90
5
 70
0
 10
401.228145486
 20
454.092954779
 10
405.61690685
 20
461.774866554
 10
424.221261725
 20
451.246867232
 10
419.84024547
 20
443.565098838
 10
401.228145486
 20
454.092954779
  0
LWPOLYLINE
  5
614
330
1F
100
AcDbEntity
  8
parks
 67
0
100
AcDbPolyline
 90
6
 70
0
 10
1003.7121477
 20
29.2984811701
 10
1014.36174674
 20
73.2388717909
 10
1024.07736545
 20
102.597805834
 10
1025.10793472
 20
42.9833105854
 10
1022.52259656
 20
26.4995697089
 10
1003.7121477
 20
29.2984811701
  0
LWPOLYLINE
  5
615
330
1F
100
AcDbEntity
  8
buildings
 67
0
100
AcDbPolyline
 90
5
 70
0
 10
560.124140082
 20
301.720813913
 10
566.045549051
 20
321.219075998
 10
576.077362525
 20
317.924809967
 10
568.966808626
 20
298.117704866
 10
560.124140082
 20
301.720813913
  0
LWPOLYLINE
  5
616
330
1F
100
AcDbEntity
  8
buildings
 67
0
100
AcDbPolyline
 90
6
 70
0
 10
169.617492472
 20
916.701567281
 10
175.236040088
 20
922.359380408
 10
183.951446895
 20
914.960794408
 10
178.333871906
 20
909.693519619
 10
174.007024962
 20
913.179492828
 10
169.617492472
 20
916.701567281
  0
LWPOLYLINE
  5
617
330
1F
100
AcDbEntity
  8
buildings
 67
0
100
AcDbPolyline
 90
9
 70
0
 10
200.80335989
 20
884.365530285
 10
203.097480238
 20
890.728021203
 10
206.223510257
 20
889.387615043
 10
207.177182845
 20
891.644998343
 10
211.861873691
 20
890.331661587
 10
207.81158787
 20
877.002358797
 10
202.155992938
 20
880.177027091
 10
202.932454738
 20
883.705159911
 10
200.80335989
 20
884.365530285
  0
LWPOLYLINE
  5
618
330
1F
100
AcDbEntity
  8
buildings
 67
0
100
AcDbPolyline
 90
9
 70
0
 10
5.14303764235
 20
692.20460661
 10
12.9618106362
 20
691.281996759
 10
12.7657062166
 20
689.623538974
 10
16.3178612316
 20
689.201813156
 10
11.4231761201
 20
648.177512022
 10
7.35811779893
 20
648.655401569
 10
7.16330898798
 20
646.922581818
 10
5.92799885815
 20
647.068152829
 10
5.14303764235
 20
692.20460661
  0
LWPOLYLINE
  5
619
330
1F
100
AcDbEntity
  8
buildings
 67
0
100
AcDbPolyline
 90
7
 70
0
 10
5.0905652059
 20
695.221867889
 10
21.9916028306
 20
693.456690212
 10
22.1904446144
 20
696.296043752
 10
46.3204760057
 20
694.577064652
 10
40.7509517909
 20
642.392728365
 10
6.07381394925
 20
638.6836178
 10
5.0905652059
 20
695.221867889
  0
LWPOLYLINE
  5
61A
330
1F
100
AcDbEntity
  8
buildings
 67
0
100
AcDbPolyline
 90
5
 70
0
 10
8.08377300494
 20
523.110346071
 10
32.9127117576
 20
520.842889292
 10
29.9299059202
 20
488.526886135
 10
8.65144711395
 20
490.469475311
 10
8.08377300494
 20
523.110346071
  0
LWPOLYLINE
  5
61B
330
1F
100
AcDbEntity
  8
buildings
 67
0
100
AcDbPolyline
 90
6
 70
0
 10
7.75836855941
 20
541.820990516
 10
8.78154808446
 20
573.9426612
 10
36.9535100351
 20
573.056453069
 10
35.6438812862
 20
531.945727787
 10
7.91494313453
 20
532.817995691
 10
7.75836855941
 20
541.820990516
  0
LWPOLYLINE
  5
61C
330
1F
100
AcDbEntity
  8
buildings
 67
0
100
AcDbPolyline
 90
7
 70
0
 10
22.6147333175
 20
782.523948425
 10
25.1685065408
 20
806.06444478
 10
37.3713042416
 20
805.09577079
 10
37.5203875018
 20
809.459132746
 10
57.0069025258
 20
807.594288453
 10
54.9575966011
 20
779.571633441
 10
22.6147333175
 20
782.523948425
  0
LWPOLYLINE
  5
61D
330
1F
100
AcDbEntity
  8
buildings
 67
0
100
AcDbPolyline
 90
5
 70
0
 10
6.52793682867
 20
612.571136849
 10
40.0860594009
 20
615.946898836
 10
42.4195398958
 20
584.792616352
 10
6.98670065973
 20
586.191959316
 10
6.52793682867
 20
612.571136849
  0
LWPOLYLINE
  5
61E
330
1F
100
AcDbEntity
  8
parks
 67
0
100
AcDbPolyline
 90
17
 70
0
 10
276.686080029
 20
490.034508279
 10
277.557686601
 20
533.648001899
 10
278.833841531
 20
596.850118494
 10
278.750941609
 20
614.13367339
 10
290.026932851
 20
602.195547841
 10
303.560740282
 20
584.857273008
 10
303.511977309
 20
561.304578014
 10
306.949518109
 20
560.332175029
 10
309.922743779
 20
557.957009737
 10
311.223128065
 20
554.539321634
 10
311.20205223
 20
550.838349546
 10
310.017838991
 20
547.117185949
 10
307.709448751
 20
544.706121525
 10
304.348121816
 20
543.522710165
 10
304.578484492
 20
526.678722055
 10
283.602519333
 20
500.447493468
 10
276.686080029
 20
490.034508279
  0
LWPOLYLINE
  5
61F
330
1F
100
AcDbEntity
  8
railways
 67
0
100
AcDbPolyline
 90
17
 70
0
 10
41.0327445372
 20
825.159463986
 10
92.1782661823
 20
815.513903088
 10
124.505519424
 20
806.322109575
 10
152.83706126
 20
797.627965234
 10
175.973349335
 20
783.915542593
 10
194.484700438
 20
770.754995922
 10
209.291302154
 20
755.633275449
 10
222.802030473
 20
737.857691935
 10
233.999610612
 20
717.940570821
 10
242.421358693
 20
694.832508006
 10
246.369841832
 20
664.887108265
 10
244.293160489
 20
632.159249726
 10
239.35401518
 20
610.167367333
 10
232.49716612
 20
588.281645016
 10
172.522747316
 20
496.323877661
 10
144.82913678
 20
456.307516612
 10
110.950862878
 20
416.46250479
  0
LWPOLYLINE
  5
620
330
1F
100
AcDbEntity
  8
buildings
 67
0
100
AcDbPolyline
 90
15
 70
0
 10
271.064203951
 20
992.658669392
 10
275.415454285
 20
975.582156625
 10
269.182827618
 20
974.014165711
 10
269.940136661
 20
971.051953028
 10
262.309741628
 20
969.124962153
 10
264.124669505
 20
961.987713266
 10
257.243411496
 20
960.250386333
 10
255.30327537
 20
967.450546246
 10
246.406781256
 20
965.176129012
 10
244.29609355
 20
975.943758912
 10
246.52038059
 20
976.50306921
 10
241.933768985
 20
990.928312355
 10
239.61965863
 20
990.627785536
 10
239.243579369
 20
992.106177299
 10
271.064203951
 20
992.658669392
  0
LWPOLYLINE
  5
621
330
1F
100
AcDbEntity
  8
parks
 67
0
100
AcDbPolyline
 90
139
 70
0
 10
64.1278398873
 20
426.108819864
 10
65.9292603605
 20
446.075095758
 10
68.1227642911
 20
465.797140287
 10
71.4986885941
 20
475.953481303
 10
85.0827591156
 20
474.925100851
 10
91.9163083694
 20
474.923016081
 10
93.821720489
 20
481.325280217
 10
86.8566370891
 20
489.339972321
 10
90.0861539878
 20
522.199520366
 10
90.811007143
 20
524.229790255
 10
94.8363631953
 20
547.898129913
 10
96.2702084384
 20
567.597657662
 10
100.294834723
 20
569.443533734
 10
103.217215656
 20
577.13729827
 10
102.028211039
 20
586.637800937
 10
109.086384432
 20
595.584295047
 10
135.646117148
 20
584.813875041
 10
232.565952753
 20
558.863937365
 10
235.445643822
 20
568.128277835
 10
214.975292925
 20
578.883864103
 10
224.050982578
 20
589.129839482
 10
228.053122846
 20
599.417861682
 10
231.757495796
 20
619.259063387
 10
193.049753806
 20
638.5774566
 10
178.921590976
 20
647.248814293
 10
170.866239276
 20
664.886665693
 10
161.342623608
 20
668.36602317
 10
152.778736421
 20
665.716060867
 10
148.659763318
 20
675.993179381
 10
161.214623563
 20
717.252744938
 10
161.744171883
 20
769.367998884
 10
157.52746133
 20
784.376110876
 10
143.52157291
 20
806.531668543
 10
148.947156287
 20
845.166192791
 10
159.21415861
 20
852.485445055
 10
158.696007043
 20
868.915323546
 10
157.626754809
 20
902.778691984
 10
159.429805329
 20
964.195468055
 10
159.883419033
 20
990.727806141
 10
170.179753427
 20
990.90667598
 10
167.683027166
 20
913.30208233
 10
169.617492472
 20
916.701567281
 10
174.007024962
 20
913.179492828
 10
178.333871906
 20
909.693519619
 10
167.184999157
 20
897.765756515
 10
168.09092951
 20
869.283098454
 10
170.228919108
 20
869.896717149
 10
200.748206331
 20
878.609106091
 10
207.81158787
 20
877.002358797
 10
210.178971992
 20
876.46699969
 10
216.89132646
 20
877.206544669
 10
244.081285574
 20
868.594574342
 10
290.000215767
 20
857.964582468
 10
300.316582169
 20
856.637390993
 10
314.560616877
 20
884.20216534
 10
325.667133618
 20
901.707811452
 10
335.387104199
 20
913.740751458
 10
350.557759772
 20
926.361061509
 10
361.236663131
 20
940.353893226
 10
367.592837219
 20
946.424198506
 10
377.261623652
 20
961.41296406
 10
383.499117157
 20
973.878219
 10
387.28190932
 20
984.311111808
 10
388.094477586
 20
994.689715012
 10
451.695207244
 20
995.792893286
 10
454.400573245
 20
980.854205595
 10
455.46897912
 20
952.79279875
 10
454.725567634
 20
920.515873748
 10
447.088662206
 20
877.817217767
 10
443.714730057
 20
858.121339532
 10
440.77830592
 20
843.165726019
 10
431.009574642
 20
800.848479489
 10
430.986952063
 20
782.028944048
 10
432.28418104
 20
762.693017772
 10
447.299374665
 20
728.364908324
 10
472.718168999
 20
688.108417532
 10
493.051261592
 20
665.132338107
 10
524.358910319
 20
646.688648858
 10
577.786193854
 20
634.18844053
 10
614.254245684
 20
637.981710608
 10
647.208208001
 20
651.197909109
 10
693.498661491
 20
684.412478134
 10
721.889627131
 20
717.921253659
 10
730.737824786
 20
732.384049922
 10
741.446588833
 20
753.62938131
 10
747.802445141
 20
751.210367827
 10
763.646974815
 20
740.15042517
 10
773.06385161
 20
730.727218532
 10
775.74369812
 20
722.44261772
 10
778.854476358
 20
710.771713548
 10
780.718673677
 20
691.352611692
 10
776.021869001
 20
683.070495593
 10
777.153587856
 20
681.769772404
 10
780.03830604
 20
678.676988837
 10
787.274430721
 20
674.692532691
 10
794.038212879
 20
662.145756674
 10
799.353754741
 20
650.364239359
 10
802.898343333
 20
642.308452416
 10
802.477323334
 20
635.262596715
 10
796.198496186
 20
620.23996844
 10
786.506036258
 20
605.260525934
 10
769.120812687
 20
584.355263218
 10
754.097864363
 20
566.791645023
 10
728.111233101
 20
535.556087769
 10
696.082184864
 20
494.034506473
 10
695.512855254
 20
493.317999173
 10
693.045278868
 20
488.449607458
 10
689.33338747
 20
481.979005781
 10
652.244514275
 20
423.614639198
 10
615.704526217
 20
380.601294963
 10
597.743252392
 20
356.72892436
 10
585.094993627
 20
331.52600705
 10
567.88053805
 20
293.21742805
 10
545.69060545
 20
251.549656798
 10
524.521857037
 20
223.019003015
 10
503.941904353
 20
237.473860195
 10
497.388965166
 20
228.462037329
 10
486.023206526
 20
209.38998662
 10
411.906908117
 20
243.194965294
 10
402.446828886
 20
247.512460587
 10
305.339704923
 20
291.164096289
 10
304.25730451
 20
287.388908105
 10
303.34308083
 20
284.202414205
 10
186.601055709
 20
345.410649596
 10
144.0608456
 20
362.598050325
 10
120.636161923
 20
375.552197827
 10
119.189044826
 20
379.376425831
 10
116.099504553
 20
384.427339504
 10
109.252439428
 20
389.673285801
 10
101.989411969
 20
387.613051967
 10
99.124121025
 20
381.547427283
 10
93.7938059296
 20
382.087035818
 10
78.6440057678
 20
385.738137443
 10
74.2911805861
 20
388.052054662
 10
71.4502413668
 20
391.294163158
 10
68.2110892263
 20
395.133718997
 10
66.3562050982
 20
399.657500423
 10
65.3023867569
 20
408.96509387
 10
64.1278398873
 20
426.108819864
  0
LWPOLYLINE
  5
622
330
1F
100
AcDbEntity
  8
buildings
 67
0
100
AcDbPolyline
 90
5
 70
0
 10
171.179147507
 20
866.993650093
 10
195.18220119
 20
875.286019497
 10
197.085406544
 20
871.107080173
 10
172.105455238
 20
862.788446198
 10
171.179147507
 20
866.993650093
  0
LWPOLYLINE
  5
623
330
1F
100
AcDbEntity
  8
buildings
 67
0
100
AcDbPolyline
 90
7
 70
0
 10
38.229454117
 20
832.02844927
 10
43.0894982108
 20
875.506786894
 10
38.8306444304
 20
875.972027766
 10
44.5086367473
 20
926.837906674
 10
71.3370262652
 20
923.873319705
 10
60.7987500121
 20
829.52913973
 10
38.229454117
 20
832.02844927
  0
LWPOLYLINE
  5
624
330
1F
100
AcDbEntity
  8
railways
 67
0
100
AcDbPolyline
 90
4
 70
0
 10
217.815648264
 20
77.3518359205
 10
169.34364347
 20
90.4938776293
 10
62.725958181
 20
107.478379249
 10
51.5120274404
 20
108.724577124
  0
LWPOLYLINE
  5
625
330
1F
100
AcDbEntity
  8
buildings
 67
0
100
AcDbPolyline
 90
6
 70
0
 10
17.1306747939
 20
2.94945259625
 10
19.5051373264
 20
22.9236185364
 10
31.2488211585
 20
21.5379086272
 10
28.7116252402
 20
0.200534868985
 10
17.1819763142
 20
0.0
 10
17.1306747939
 20
2.94945259625
  0
LWPOLYLINE
  5
626
330
1F
100
AcDbEntity
  8
buildings
 67
0
100
AcDbPolyline
 90
14
 70
0
 10
16.7073663701
 20
73.1865910022
 10
19.0239662515
 20
98.3036662592
 10
95.3639851396
 20
93.2154900762
 10
94.6954254674
 20
84.8263474968
 10
96.3554101867
 20
83.4790984937
 10
97.4036487206
 20
81.6284189662
 10
97.7233457424
 20
79.7464778903
 10
97.4072249896
 20
77.8534833305
 10
96.4901779151
 20
76.1731943726
 10
93.9674362347
 20
74.0558772581
 10
93.3384519228
 20
66.5135424482
 10
76.6918585497
 20
67.9535565954
 10
48.2761593699
 20
70.8997225757
 10
16.7073663701
 20
73.1865910022
  0
LWPOLYLINE
  5
627
330
1F
100
AcDbEntity
  8
railways
 67
0
100
AcDbPolyline
 90
8
 70
0
 10
354.691515343
 20
5.86450439645
 10
334.495110144
 20
21.7861942421
 10
296.926572791
 20
44.4347498408
 10
258.862339401
 20
60.3334959578
 10
216.467417498
 20
73.2558825645
 10
168.434816906
 20
86.1080153952
 10
61.87080874
 20
103.130629749
 10
15.3059911312
 20
107.856402628
  0
LWPOLYLINE
  5
628
330
1F
100
AcDbEntity
  8
buildings
 67
0
100
AcDbPolyline
 90
26
 70
0
 10
235.263705799
 20
354.410333732
 10
256.70118461
 20
354.038806732
 10
256.2956486
 20
349.252586144
 10
258.317124847
 20
343.169600091
 10
260.859939155
 20
340.117520975
 10
264.117107877
 20
337.914667513
 10
268.825107469
 20
336.583126011
 10
276.334143196
 20
337.87576979
 10
282.101802563
 20
342.968951139
 10
283.88352975
 20
347.118906825
 10
288.50333371
 20
345.968253565
 10
294.953409384
 20
344.354345102
 10
293.377671484
 20
341.742139797
 10
290.462400549
 20
338.102491102
 10
287.140214924
 20
335.115934737
 10
282.951841424
 20
332.430469274
 10
278.145901576
 20
330.46882114
 10
273.037890476
 20
329.375938108
 10
268.115183522
 20
329.225369256
 10
266.502959652
 20
315.761745997
 10
257.700033859
 20
318.407576289
 10
251.25983338
 20
321.224604793
 10
244.252336086
 20
328.122901986
 10
238.35562362
 20
337.160433976
 10
235.590251162
 20
345.434125108
 10
235.263705799
 20
354.410333732
  0
LWPOLYLINE
  5
629
330
1F
100
AcDbEntity
  8
railways
 67
0
100
AcDbPolyline
 90
2
 70
0
 10
15.1861417428
 20
114.747020906
 10
51.5120274404
 20
108.724577124
  0
LWPOLYLINE
  5
62A
330
1F
100
AcDbEntity
  8
buildings
 67
0
100
AcDbPolyline
 90
13
 70
0
 10
16.833896032
 20
36.9264789796
 10
17.4070908217
 20
44.1052292017
 10
19.4418327262
 20
43.9546592711
 10
20.9175466236
 20
62.5670857807
 10
18.0439284077
 20
62.7867478635
 10
18.5528454955
 20
69.2019412564
 10
40.5871058073
 20
67.4838039833
 10
40.0400568096
 20
60.5844519995
 10
37.2982556075
 20
60.806412241
 10
35.8493226595
 20
42.4362044837
 10
37.876471505
 20
42.2762005678
 10
37.3224816995
 20
35.3302371148
 10
16.833896032
 20
36.9264789796
  0
LWPOLYLINE
  5
62B
330
1F
100
AcDbEntity
  8
buildings
 67
0
100
AcDbPolyline
 90
17
 70
0
 10
54.7713986953
 20
261.622188924
 10
59.2466669014
 20
312.039501921
 10
91.2774339417
 20
309.992931018
 10
91.772208157
 20
316.77978949
 10
107.986456586
 20
315.248528054
 10
108.003925177
 20
307.996375945
 10
139.624178251
 20
305.022004231
 10
136.29592585
 20
253.741374934
 10
124.536634069
 20
255.117659794
 10
124.306432246
 20
257.652018193
 10
108.92858878
 20
259.262926836
 10
107.914786558
 20
248.868712982
 10
80.6943007912
 20
251.742800127
 10
81.2901729692
 20
260.744347315
 10
64.6359698388
 20
262.156332682
 10
64.3784851107
 20
260.459615539
 10
54.7713986953
 20
261.622188924
  0
LWPOLYLINE
  5
62C
330
1F
100
AcDbEntity
  8
buildings
 67
0
100
AcDbPolyline
 90
5
 70
0
 10
11.1026603749
 20
349.529267766
 10
17.6443417686
 20
348.880078631
 10
14.0512546933
 20
313.308431227
 10
11.7285868848
 20
313.540403218
 10
11.1026603749
 20
349.529267766
  0
LWPOLYLINE
  5
62D
330
1F
100
AcDbEntity
  8
outline
 67
0
100
AcDbPolyline
 90
58
 70
0
 10
1027.37174256
 20
52.2353309759
 10
1027.38568577
 20
52.1889772222
 10
1027.43298725
 20
51.9482419174
 10
1027.45646477
 20
51.7040294635
 10
1027.45589223
 20
51.4586917599
 10
1027.43127515
 20
51.2145915429
 10
1027.38285061
 20
50.9740796309
 10
1027.31108495
 20
50.7394722852
 10
1027.21666932
 20
50.5130289028
 10
1027.10051299
 20
50.2969302572
 10
1026.96373462
 20
50.0932574965
 10
1026.80765145
 20
49.9039721007
 10
1026.63376665
 20
49.7308969917
 10
1026.44375483
 20
49.5756989773
 10
1026.2394459
 20
49.4398726994
 10
1026.02280747
 20
49.3247262391
 10
1025.79592588
 20
49.2313685199
 10
1025.56098614
 20
49.1606986277
 10
1025.32025084
 20
49.1133971521
 10
1025.07603838
 20
49.0899196321
 10
1024.83070068
 20
49.0904921692
 10
1024.58660046
 20
49.1151092495
 10
1024.29056141
 20
49.1597287981
 10
1022.2288348
 20
52.2010809343
 10
1022.50377767
 20
53.3767891481
 10
1022.57129818
 20
53.6126532999
 10
1022.66161228
 20
53.8407635346
 10
1022.77385021
 20
54.0589230259
 10
1022.90693105
 20
54.2650307787
 10
1023.05957317
 20
54.4571018626
 10
1023.23030653
 20
54.6332865282
 10
1023.41748688
 20
54.7918880207
 10
1023.61931157
 20
54.9313789211
 10
1023.83383691
 20
55.0504158558
 10
1024.05899692
 20
55.1478524341
 10
1024.29262318
 20
55.2227502883
 10
1024.53246574
 20
55.2743881112
 10
1024.77621478
 20
55.3022686025
 10
1025.02152287
 20
55.3061232576
 10
1025.26602755
 20
55.2859149542
 10
1025.50737412
 20
55.2418383092
 10
1025.74323827
 20
55.1743178049
 10
1025.97134851
 20
55.0840037006
 10
1026.189508
 20
54.9717657705
 10
1026.39561575
 20
54.8386849273
 10
1026.58768683
 20
54.6860428122
 10
1026.7638715
 20
54.5153094522
 10
1026.92247299
 20
54.3281291029
 10
1027.06196389
 20
54.1263044133
 10
1027.18100083
 20
53.9117790657
 10
1027.27843741
 20
53.6866190563
 10
1027.35333526
 20
53.4529927992
 10
1027.40497308
 20
53.2131502428
 10
1027.43285357
 20
52.9694012022
 10
1027.43670823
 20
52.7240931138
 10
1027.41649993
 20
52.4795884286
 10
1027.37242328
 20
52.2382418605
 10
1027.37174256
 20
52.2353309759
  0
LWPOLYLINE
  5
62E
330
1F
100
AcDbEntity
  8
outline
 67
0
100
AcDbPolyline
 90
265
 70
0
 10
963.003537756
 20
19.2385500149
 10
963.272704403
 20
18.9528262634
 10
963.512569115
 20
18.6420954047
 10
963.720821863
 20
18.3093499469
 10
963.895457058
 20
17.9577944107
 10
964.034792869
 20
17.590814468
 10
964.137487415
 20
17.2119443364
 10
964.202551692
 20
16.8248327422
 10
964.229359095
 20
16.4332077818
 10
964.217651455
 20
16.0408410176
 10
964.167541522
 20
15.651511156
 10
964.079511882
 20
15.2689676565
 10
963.954410309
 20
14.896894622
 10
963.7934416
 20
14.5388753194
 10
963.598155971
 20
14.19835767
 10
963.370434129
 20
13.8786210452
 10
963.112469161
 20
13.5827446833
 10
962.826745409
 20
13.3135780355
 10
962.51601455
 20
13.0737133238
 10
962.183269092
 20
12.8654605763
 10
961.831713556
 20
12.690825381
 10
961.464733614
 20
12.5514895703
 10
961.085863482
 20
12.448795024
 10
960.698751888
 20
12.383730747
 10
960.307126927
 20
12.3569233436
 10
959.914760163
 20
12.368630984
 10
959.525430302
 20
12.418740917
 10
959.142886802
 20
12.5067705567
 10
958.770813768
 20
12.6318721295
 10
958.412794465
 20
12.7928408389
 10
958.072276816
 20
12.9881264681
 10
957.752540191
 20
13.2158483099
 10
957.456663829
 20
13.4738132784
 10
951.834459823
 20
18.883541118
 10
945.621862545
 20
13.1232955912
 10
945.32126327
 20
12.8708499087
 10
944.99736746
 20
12.6490837024
 10
944.653294406
 20
12.4601327022
 10
944.292357722
 20
12.3058166094
 10
943.918033425
 20
12.1876215724
 10
943.533926461
 20
12.1066858741
 10
943.143735992
 20
12.0637889693
 10
942.751219765
 20
12.0593439789
 10
942.360157926
 20
12.0933937103
 10
941.974316613
 20
12.1656102463
 10
941.597411691
 20
12.2752981019
 10
941.233072958
 20
12.4214009232
 10
940.884809197
 20
12.6025116602
 10
940.555974377
 20
12.8168861175
 10
940.249735358
 20
13.0624597518
 10
939.969041389
 20
13.3368675548
 10
939.716595707
 20
13.6374668294
 10
939.494829501
 20
13.9613626402
 10
939.3058785
 20
14.3054356935
 10
939.151562408
 20
14.6663723777
 10
939.033367371
 20
15.0406966752
 10
938.952431672
 20
15.4248036385
 10
938.909534768
 20
15.8149941074
 10
938.905089777
 20
16.2075103345
 10
938.939139509
 20
16.598572174
 10
939.011356045
 20
16.9844134865
 10
939.1210439
 20
17.3613184093
 10
939.267146722
 20
17.7256571419
 10
939.448257459
 20
18.0739209032
 10
939.662631916
 20
18.4027557228
 10
939.90820555
 20
18.7089947415
 10
940.182613353
 20
18.9896887104
 10
949.010341289
 20
27.1746519517
 10
963.354732255
 20
43.6190137805
 10
977.676647423
 20
64.1163918805
 10
988.576094653
 20
90.1900760447
 10
1001.78251249
 20
133.511404401
 10
988.978526792
 20
94.6349853596
 10
988.959551692
 20
94.5787780247
 10
985.125762447
 20
83.4943849471
 10
984.873686292
 20
82.9172484046
 10
979.02860751
 20
71.9747348698
 10
978.876718413
 20
71.7144757742
 10
967.618747604
 20
53.9931050949
 10
967.463737655
 20
53.7666562258
 10
954.02775502
 20
35.514807686
 10
953.80285977
 20
35.2363201835
 10
945.252201509
 20
25.5673008071
 10
945.12400534
 20
25.4290453239
 10
940.178282141
 20
20.341189298
 10
940.092214955
 20
20.2553000475
 10
934.82099832
 20
15.1525129947
 10
934.561066425
 20
14.9218940931
 10
931.847130336
 20
12.717058335
 10
931.530682298
 20
12.4847882641
 10
931.192991596
 20
12.2846539687
 10
930.837310376
 20
12.1185828516
 10
930.467064041
 20
11.9881742685
 10
930.085818268
 20
11.8946841252
 10
929.697244661
 20
11.8390127829
 10
929.305085396
 20
11.8216963872
 10
928.913117182
 20
11.8429017043
 10
928.525114886
 20
11.9024245155
 10
928.144815184
 20
11.9996915835
 10
927.775880568
 20
12.1337661733
 10
927.421864081
 20
12.3033570734
 10
927.086175095
 20
12.5068310307
 10
926.772046479
 20
12.7422284796
 10
926.482503462
 20
13.0072824142
 10
926.220334504
 20
13.29944022
 10
925.988064433
 20
13.6158882578
 10
925.787930137
 20
13.95357896
 10
925.62185902
 20
14.3092601804
 10
925.491450437
 20
14.6795065145
 10
925.397960294
 20
15.0607522877
 10
925.342288951
 20
15.4493258948
 10
925.324972556
 20
15.8414851596
 10
925.346177873
 20
16.2334533739
 10
925.405700684
 20
16.6214556695
 10
925.502967752
 20
17.0017553723
 10
925.637042342
 20
17.3706899883
 10
925.806633242
 20
17.7247064753
 10
926.010107199
 20
18.0603954612
 10
926.245504648
 20
18.3745240774
 10
926.510558583
 20
18.6640670937
 10
926.802716389
 20
18.9262360525
 10
929.381673181
 20
21.0214129348
 10
934.484250836
 20
25.9609494776
 10
939.32186549
 20
30.9375900787
 10
947.691371043
 20
40.401763349
 10
960.939751543
 20
58.3987674277
 10
972.043253902
 20
75.8769865918
 10
977.668467462
 20
86.4078926439
 10
981.389310385
 20
97.1657311412
 10
998.904292624
 20
150.346030239
 10
998.96773732
 20
150.524351075
 10
1017.8689942
 20
199.91651807
 10
1018.02869536
 20
200.278975823
 10
1018.81646227
 20
201.850981077
 10
1019.00933521
 20
202.192871081
 10
1019.2347905
 20
202.514209936
 10
1019.49065687
 20
202.811902975
 10
1019.7744702
 20
203.08308325
 10
1020.0834972
 20
203.325139146
 10
1020.41476178
 20
203.535739535
 10
1020.76507368
 20
203.712856218
 10
1021.13105921
 20
203.854783465
 10
1021.50919371
 20
203.960154439
 10
1021.89583556
 20
204.02795436
 10
1022.28726117
 20
204.057530278
 10
1022.67970091
 20
204.048597361
 10
1023.06937537
 20
204.001241637
 10
1023.45253176
 20
203.915919168
 10
1023.82548009
 20
203.793451656
 10
1024.18462865
 20
203.635018529
 10
1024.52651866
 20
203.442145587
 10
1024.84785751
 20
203.216690299
 10
1025.14555055
 20
202.960823925
 10
1025.41673083
 20
202.677010598
 10
1025.65878672
 20
202.367983594
 10
1025.86938711
 20
202.036719012
 10
1026.04650379
 20
201.686407112
 10
1026.18843104
 20
201.320421589
 10
1026.29380202
 20
200.942287084
 10
1026.36160194
 20
200.555645238
 10
1026.39117786
 20
200.164219623
 10
1026.38224494
 20
199.771779884
 10
1026.33488921
 20
199.382105427
 10
1026.24956674
 20
198.998949033
 10
1026.12709923
 20
198.626000705
 10
1025.96866611
 20
198.266852141
 10
1025.26973345
 20
196.872117497
 10
1007.99990272
 20
151.743141738
 10
1019.08285755
 20
178.850625474
 10
1019.24906191
 20
179.20624445
 10
1019.44932271
 20
179.543860146
 10
1019.68171133
 20
179.86022114
 10
1019.94398973
 20
180.152280701
 10
1020.23363203
 20
180.417226137
 10
1020.54784881
 20
180.652505879
 10
1020.88361401
 20
180.855854053
 10
1021.23769401
 20
181.025312306
 10
1021.60667883
 20
181.159248662
 10
1021.98701495
 20
181.25637324
 10
1022.37503952
 20
181.315750679
 10
1022.76701565
 20
181.33680914
 10
1023.1591684
 20
181.31934582
 10
1023.54772112
 20
181.263528899
 10
1023.92893184
 20
181.169895925
 10
1024.29912929
 20
181.039348635
 10
1024.65474827
 20
180.873144271
 10
1024.99236396
 20
180.672883471
 10
1025.30872496
 20
180.440494856
 10
1025.60078452
 20
180.178216456
 10
1025.86572995
 20
179.888574156
 10
1026.1010097
 20
179.574357368
 10
1026.30435787
 20
179.238592172
 10
1026.47381612
 20
178.884512171
 10
1026.60775248
 20
178.515527349
 10
1026.70487706
 20
178.135191231
 10
1026.7642545
 20
177.747166662
 10
1026.78531296
 20
177.35519053
 10
1026.76784964
 20
176.963037781
 10
1026.71203272
 20
176.574485059
 10
1026.61839974
 20
176.193274339
 10
1026.48785245
 20
175.82307689
 10
1021.8308492
 20
164.432645181
 10
1021.84022811
 20
164.436204159
 10
1022.21911765
 20
164.538827065
 10
1022.60624154
 20
164.603818144
 10
1022.99787156
 20
164.630551497
 10
1023.39023611
 20
164.618769667
 10
1023.77955648
 20
164.568586118
 10
1024.16208333
 20
164.480484147
 10
1024.53413271
 20
164.355312224
 10
1024.89212157
 20
164.194275821
 10
1025.23260228
 20
163.998925809
 10
1025.55229584
 20
163.771143514
 10
1025.84812342
 20
163.513122605
 10
1026.11723604
 20
163.227347963
 10
1026.35704199
 20
162.916571756
 10
1026.56523182
 20
162.583786927
 10
1026.73980054
 20
162.232198376
 10
1026.87906696
 20
161.865192094
 10
1026.98168986
 20
161.486302551
 10
1027.04668094
 20
161.099178661
 10
1027.0734143
 20
160.707548639
 10
1027.06163246
 20
160.315184095
 10
1027.01144892
 20
159.925863716
 10
1026.92334695
 20
159.543336868
 10
1026.79817502
 20
159.171287495
 10
1026.63713862
 20
158.813298635
 10
1026.44178861
 20
158.472817917
 10
1026.21400631
 20
158.153124357
 10
1026.13954614
 20
158.067753863
 10
1025.36407056
 20
156.529789201
 10
1025.49096337
 20
156.450268947
 10
1025.80155452
 20
156.210223351
 10
1026.0871215
 20
155.940890385
 10
1026.34491414
 20
155.644863873
 10
1026.57244978
 20
155.32499471
 10
1026.76753711
 20
154.984363413
 10
1026.92829733
 20
154.626250446
 10
1027.05318224
 20
154.254104634
 10
1027.14098913
 20
153.871509944
 10
1027.19087237
 20
153.482150971
 10
1027.20235155
 20
153.089777457
 10
1027.17531612
 20
152.698168172
 10
1027.11002646
 20
152.311094527
 10
1027.00711133
 20
151.932284254
 10
1026.86756187
 20
151.565385502
 10
1026.69272201
 20
151.213931707
 10
1026.48427556
 20
150.881307562
 10
1026.24422996
 20
150.570716418
 10
1025.974897
 20
150.285149438
 10
1025.67887048
 20
150.027356789
 10
1025.35900132
 20
149.799821153
 10
1025.01837002
 20
149.604733825
 10
1024.66025706
 20
149.443973601
 10
1024.28811124
 20
149.31908869
 10
1020.688997
 20
148.304830044
 10
1011.71824887
 20
138.668946252
 10
996.170021517
 20
87.6657184761
 10
996.034385105
 20
87.2893847694
 10
984.892057562
 20
60.6346817274
 10
984.480431037
 20
59.8863827077
 10
969.789347247
 20
38.8606542636
 10
969.52478701
 20
38.5222815224
 10
957.403723221
 20
24.6267345333
 10
963.003537756
 20
19.2385500149
  0
LWPOLYLINE
  5
62F
330
1F
100
AcDbEntity
  8
outline
 67
0
100
AcDbPolyline
 90
92
 70
0
 10
1015.90042102
 20
79.8749796931
 10
1010.70049559
 20
57.4411559395
 10
1006.02657848
 20
37.2821923757
 10
1006.65093877
 20
36.8222088283
 10
1009.36808752
 20
34.8177611436
 10
1013.42742154
 20
35.7682005207
 10
1015.98875571
 20
49.5992891127
 10
1016.01827364
 20
49.7369217791
 10
1017.64760216
 20
56.4115689362
 10
1019.28356435
 20
63.1514155772
 10
1020.2963811
 20
64.6216015087
 10
1023.31692746
 20
66.6989102748
 10
1023.52565322
 20
66.8278461984
 10
1023.74601185
 20
66.935702558
 10
1023.97588115
 20
67.0214406377
 10
1024.21304738
 20
67.084234733
 10
1024.45522648
 20
67.1234801024
 10
1024.70008614
 20
67.1387987916
 10
1024.94526823
 20
67.1300432733
 10
1025.18841151
 20
67.0972978677
 10
1025.42717438
 20
67.0408779312
 10
1025.65925742
 20
66.9613268185
 10
1025.88242555
 20
66.8594106503
 10
1026.09452952
 20
66.7361109351
 10
1026.29352667
 20
66.5926151165
 10
1026.47750055
 20
66.4303051376
 10
1026.64467938
 20
66.2507441324
 10
1026.79345315
 20
66.0556613714
 10
1026.92238907
 20
65.8469356083
 10
1027.03024543
 20
65.6265769863
 10
1027.11598351
 20
65.3967076793
 10
1027.17877761
 20
65.1595414545
 10
1027.21802298
 20
64.9173623522
 10
1027.23334166
 20
64.6725026897
 10
1027.22458615
 20
64.4273205992
 10
1027.19184074
 20
64.1841773183
 10
1027.1354208
 20
63.9454144499
 10
1027.05586969
 20
63.7133314107
 10
1026.95395352
 20
63.4901632874
 10
1026.83065381
 20
63.278059311
 10
1026.68715799
 20
63.0790621586
 10
1026.52484801
 20
62.8950882818
 10
1026.34528701
 20
62.7279094494
 10
1026.15020424
 20
62.579135685
 10
1023.91705874
 20
61.0433430868
 10
1022.5061291
 20
55.2305868882
 10
1022.50536035
 20
55.2274287457
 10
1020.89234352
 20
48.6196034342
 10
1018.04633076
 20
33.2512633656
 10
1016.15805504
 20
31.2723206588
 10
1009.38335588
 20
29.686114441
 10
1007.32930763
 20
30.1084716485
 10
1003.6846062
 20
32.7971781828
 10
1001.73690464
 20
34.2321039504
 10
1000.78435467
 20
36.8095079997
 10
1005.82964778
 20
58.5702448008
 10
1011.05531496
 20
81.115125108
 10
1011.11684619
 20
81.3345773172
 10
1021.53902754
 20
112.893879464
 10
1021.62730003
 20
113.122787488
 10
1021.73758438
 20
113.341941039
 10
1021.86881848
 20
113.54922955
 10
1022.01973848
 20
113.742656719
 10
1022.18889094
 20
113.920359736
 10
1022.37464683
 20
114.080627223
 10
1022.57521721
 20
114.221915719
 10
1022.78867048
 20
114.342864536
 10
1023.01295098
 20
114.442308873
 10
1023.24589875
 20
114.519291025
 10
1023.48527039
 20
114.573069612
 10
1023.72876061
 20
114.603126718
 10
1023.97402447
 20
114.609172875
 10
1024.21869994
 20
114.591149856
 10
1024.46043067
 20
114.549231233
 10
1024.69688865
 20
114.483820705
 10
1024.92579668
 20
114.395548211
 10
1025.14495023
 20
114.285263862
 10
1025.35223874
 20
114.154029759
 10
1025.54566591
 20
114.003109757
 10
1025.72336893
 20
113.833957298
 10
1025.88363641
 20
113.648201412
 10
1026.02492491
 20
113.447631032
 10
1026.14587373
 20
113.234177758
 10
1026.24531806
 20
113.009897263
 10
1026.32230022
 20
112.77694949
 10
1026.3760788
 20
112.537577854
 10
1026.40613591
 20
112.294087634
 10
1026.41218207
 20
112.048823775
 10
1026.39415905
 20
111.804148301
 10
1026.35224042
 20
111.562417572
 10
1026.2868299
 20
111.325959585
 10
1015.90042102
 20
79.8749796931
  0
LWPOLYLINE
  5
630
330
1F
100
AcDbEntity
  8
outline
 67
0
100
AcDbPolyline
 90
67
 70
0
 10
853.351736171
 20
167.280497284
 10
853.538623231
 20
167.625695739
 10
853.758445744
 20
167.950913834
 10
854.009086699
 20
168.253019541
 10
854.288132287
 20
168.529103416
 10
854.592895146
 20
168.776506622
 10
854.920440243
 20
168.99284653
 10
855.26761314
 20
169.176039668
 10
855.631070372
 20
169.324321787
 10
856.007311648
 20
169.436264848
 10
856.392713558
 20
169.510790779
 10
856.783564471
 20
169.547181854
 10
857.176100279
 20
169.545087608
 10
857.566540648
 20
169.504528208
 10
857.951125423
 20
169.425894264
 10
858.326150843
 20
169.309943065
 10
858.688005209
 20
169.157791283
 10
859.033203664
 20
168.970904223
 10
859.358421759
 20
168.75108171
 10
859.660527466
 20
168.500440755
 10
859.936611341
 20
168.221395167
 10
860.184014547
 20
167.916632308
 10
860.400354455
 20
167.589087211
 10
860.583547593
 20
167.241914314
 10
860.731829712
 20
166.878457081
 10
860.843772773
 20
166.502215806
 10
860.918298704
 20
166.116813896
 10
860.954689779
 20
165.725962983
 10
860.952595532
 20
165.333427175
 10
860.912036133
 20
164.942986806
 10
860.833402189
 20
164.558402031
 10
860.71745099
 20
164.18337661
 10
860.565299208
 20
163.821522245
 10
787.562305042
 20
11.5765090887
 10
787.375417982
 20
11.2313106336
 10
787.155595469
 20
10.9060925385
 10
786.904954514
 20
10.6039868316
 10
786.625908926
 20
10.3279029559
 10
786.321146067
 20
10.0804997501
 10
785.99360097
 20
9.86415984225
 10
785.646428073
 20
9.68096670395
 10
785.28297084
 20
9.53268458527
 10
784.906729565
 20
9.42074152407
 10
784.521327655
 20
9.34621559322
 10
784.130476742
 20
9.30982451818
 10
783.737940934
 20
9.3119187649
 10
783.347500565
 20
9.35247816463
 10
782.96291579
 20
9.43111210818
 10
782.58789037
 20
9.54706330769
 10
782.226036004
 20
9.69921508973
 10
781.880837549
 20
9.88610214945
 10
781.555619454
 20
10.1059246623
 10
781.253513747
 20
10.3565656174
 10
780.977429871
 20
10.6356112052
 10
780.730026666
 20
10.9403740642
 10
780.513686758
 20
11.2679191615
 10
780.330493619
 20
11.6150920587
 10
780.182211501
 20
11.9785492911
 10
780.07026844
 20
12.3547905668
 10
779.995742509
 20
12.7401924766
 10
779.959351434
 20
13.1310433896
 10
779.96144568
 20
13.5235791976
 10
780.00200508
 20
13.9140195664
 10
780.080639024
 20
14.2986043418
 10
780.196590223
 20
14.673629762
 10
780.348742005
 20
15.0354841273
 10
853.351736171
 20
167.280497284
  0
LWPOLYLINE
  5
631
330
1F
100
AcDbEntity
  8
outline
 67
0
100
AcDbPolyline
 90
2960
 70
0
 10
31.759344906
 20
419.36121362
 10
30.8579311199
 20
419.627698169
 10
26.6308519524
 20
381.92713816
 10
26.5915850144
 20
381.684962554
 10
26.528769797
 20
381.447801923
 10
26.4430112452
 20
381.217940252
 10
26.3351352607
 20
380.997591237
 10
26.2061807482
 20
380.788876958
 10
26.0573896102
 20
380.593807448
 10
25.8901947865
 20
380.414261332
 10
25.7062064549
 20
380.251967739
 10
25.5071965234
 20
380.108489644
 10
25.2950815666
 20
379.985208819
 10
25.0719043674
 20
379.883312527
 10
24.8398142443
 20
379.803782084
 10
24.6010463519
 20
379.747383413
 10
24.3579001557
 20
379.714659662
 10
24.1127172864
 20
379.70592598
 10
23.8678589891
 20
379.721266476
 10
23.625683383
 20
379.760533414
 10
23.3885227517
 20
379.823348632
 10
23.1586610816
 20
379.909107183
 10
22.9383120662
 20
380.016983168
 10
22.7295977871
 20
380.145937681
 10
22.5345282769
 20
380.294728819
 10
22.3549821615
 20
380.461923642
 10
22.1926885682
 20
380.645911974
 10
22.0492104731
 20
380.844921905
 10
21.9259296486
 20
381.057036862
 10
21.8240333564
 20
381.280214061
 10
21.7445029136
 20
381.512304184
 10
21.6881042418
 20
381.751072077
 10
21.655380491
 20
381.994218273
 10
21.6466468088
 20
382.239401142
 10
21.6619873055
 20
382.48425944
 10
25.9849349528
 20
421.039853205
 10
9.05654189765
 20
425.80690191
 10
8.82393579523
 20
425.884910356
 10
8.6000959196
 20
425.985342555
 10
8.38717797114
 20
426.107231291
 10
8.18723246609
 20
426.249402707
 10
8.00218498895
 20
426.410487616
 10
7.83381764809
 20
426.588934681
 10
7.68375191305
 20
426.78302536
 10
7.55343299887
 20
426.990890454
 10
7.44411594796
 20
427.210528108
 10
7.35685354326
 20
427.439823091
 10
7.29248616943
 20
427.676567168
 10
7.25163371948
 20
427.918480363
 10
7.23468962482
 20
428.16323292
 10
7.24181706636
 20
428.408467738
 10
7.27294740293
 20
428.651823073
 10
7.32778083238
 20
428.890955278
 10
7.40578927879
 20
429.12356138
 10
7.5062214782
 20
429.347401256
 10
7.62811021362
 20
429.560319205
 10
7.7702816299
 20
429.76026471
 10
7.93136653857
 20
429.945312187
 10
8.10981360392
 20
430.113679528
 10
8.30390428314
 20
430.263745263
 10
8.51176937691
 20
430.394064177
 10
8.73140703073
 20
430.503381228
 10
8.96070201394
 20
430.590643632
 10
9.19744609049
 20
430.655011006
 10
9.43935928553
 20
430.695863456
 10
9.68411184272
 20
430.712807551
 10
9.92934666116
 20
430.705680109
 10
10.1727019955
 20
430.674549773
 10
10.4118342008
 20
430.619716343
 10
26.5526539799
 20
426.074448888
 10
33.5171768413
 20
487.584113776
 10
33.5174015458
 20
487.585827991
 10
33.5174408691
 20
487.586435922
 10
33.5176409095
 20
487.587654036
 10
33.5286095758
 20
487.671331248
 10
34.8553068286
 20
496.574011195
 10
37.4727853984
 20
498.701328737
 10
39.5691717339
 20
498.579715222
 10
39.6476719979
 20
498.571280834
 10
39.7264193986
 20
498.565599527
 10
40.7082248452
 20
498.446109713
 10
48.1397293714
 20
574.846693558
 10
6.62436951998
 20
579.178491161
 10
6.23641685478
 20
579.238336595
 10
5.85619816609
 20
579.335919869
 10
5.48737516771
 20
579.470301201
 10
5.13349982674
 20
579.640186425
 10
4.79798015616
 20
579.843939455
 10
4.48404739381
 20
580.079598037
 10
4.19472488381
 20
580.34489265
 10
3.93279896009
 20
580.637268362
 10
3.70079211248
 20
580.953909435
 10
3.50093869375
 20
581.291766442
 10
3.33516340157
 20
581.647585637
 10
3.20506274262
 20
582.017940284
 10
3.11188965738
 20
582.399263668
 10
3.05654145358
 20
582.787883434
 10
3.03955116469
 20
583.180056963
 10
3.06108241648
 20
583.572007408
 10
3.12092785122
 20
583.959960073
 10
3.21851112465
 20
584.340178762
 10
3.35289245652
 20
584.70900176
 10
3.52277768114
 20
585.062877101
 10
3.72653071092
 20
585.398396772
 10
3.9621892928
 20
585.712329534
 10
4.22748390582
 20
586.001652044
 10
4.51985961784
 20
586.263577968
 10
4.8365006909
 20
586.495584816
 10
5.17435769839
 20
586.695438234
 10
5.53017689263
 20
586.861213527
 10
5.90053154028
 20
586.991314186
 10
6.28185492361
 20
587.084487271
 10
6.67047468999
 20
587.139835475
 10
7.06264821864
 20
587.156825763
 10
7.45459866409
 20
587.135294512
 10
48.913254783
 20
582.809413493
 10
49.1359231228
 20
585.104531076
 10
49.136366293
 20
585.109072033
 10
49.7094406457
 20
590.946656892
 10
52.6047882435
 20
620.785342782
 10
37.6804613498
 20
620.532939137
 10
15.5339361313
 20
618.054950281
 10
15.0464707718
 20
618.030371619
 10
6.31913675442
 20
618.123494087
 10
5.92729601853
 20
618.146937299
 10
5.53963993946
 20
618.208674734
 10
5.15990185719
 20
618.308111826
 10
4.79173885701
 20
618.444290943
 10
4.4386965499
 20
618.615900604
 10
4.10417492625
 20
618.821288115
 10
3.79139561217
 20
619.058475483
 10
3.50337084343
 20
619.325178462
 10
3.24287445601
 20
619.618828557
 10
3.01241517253
 20
619.936597758
 10
2.81421244186
 20
620.275425774
 10
2.65017506465
 20
620.632049505
 10
2.52188281052
 20
621.003034469
 10
2.43057120399
 20
621.38480788
 10
2.37711962577
 20
621.77369305
 10
2.36204284376
 20
622.165944802
 10
2.38548605563
 20
622.557785538
 10
2.44722349041
 20
622.945441617
 10
2.54666058288
 20
623.325179699
 10
2.68283969947
 20
623.693342699
 10
2.85444936084
 20
624.046385006
 10
3.05983687214
 20
624.38090663
 10
3.29702423937
 20
624.693685944
 10
3.34053579715
 20
624.740676069
 10
3.20489805766
 20
624.887082607
 10
2.96763097523
 20
625.199801456
 10
2.76215820589
 20
625.534270718
 10
2.59045856473
 20
625.887269273
 10
2.45418561316
 20
626.255397551
 10
2.3546517342
 20
626.635110276
 10
2.29281549351
 20
627.022750607
 10
2.26927240789
 20
627.414585354
 10
2.28424921013
 20
627.806840937
 10
2.33760166543
 20
628.195739718
 10
2.42881596048
 20
628.57753639
 10
2.55701365177
 20
628.948554043
 10
2.72096012543
 20
629.305219573
 10
2.91907648732
 20
629.644098096
 10
3.14945476856
 20
629.961926027
 10
3.40987630036
 20
630.25564251
 10
3.69783308102
 20
630.522418894
 10
4.01055192933
 20
630.759685976
 10
4.34502119182
 20
630.965158746
 10
4.69801974665
 20
631.136858387
 10
5.06614802478
 20
631.273131339
 10
9.92566851303
 20
632.805419779
 10
10.6818230815
 20
632.965547316
 10
41.0527746995
 20
636.378813321
 10
54.3146683983
 20
638.336067716
 10
56.3411862984
 20
659.204903369
 10
57.0844054812
 20
666.869810345
 10
57.0844873903
 20
666.870368348
 10
57.0845143699
 20
666.870931684
 10
67.0958540336
 20
769.81720661
 10
3.20986328056
 20
776.270563603
 10
2.82171560886
 20
776.329130927
 10
2.44117757591
 20
776.425461358
 10
2.07191397098
 20
776.558627181
 10
1.71748100445
 20
776.727345938
 10
1.38129205955
 20
776.929992773
 10
1.0665848196
 20
777.164616087
 10
0.77639008734
 20
777.42895633
 10
0.513502596691
 20
777.72046776
 10
0.280454097893
 20
778.036342962
 10
0.0794889753888
 20
778.373539887
 10
-0.0874573668347
 20
778.728811143
 10
-0.218777144239
 20
779.098735274
 10
-0.313205675582
 20
779.479749708
 10
-0.369833562486
 20
779.868185068
 10
-0.388115447444
 20
780.260300509
 10
-0.367875265911
 20
780.652319745
 10
-0.309307941899
 20
781.040467417
 10
-0.212977510754
 20
781.42100545
 10
-0.079811687188
 20
781.790269055
 10
0.0889070691223
 20
782.144702021
 10
0.291553904323
 20
782.480890966
 10
0.526177218612
 20
782.795598206
 10
0.790517461215
 20
783.085792938
 10
1.08202889109
 20
783.348680429
 10
1.39790409382
 20
783.581728928
 10
1.73510101852
 20
783.78269405
 10
2.09037227448
 20
783.949640393
 10
2.46029640528
 20
784.08096017
 10
2.84131083934
 20
784.175388701
 10
3.22974619936
 20
784.232016588
 10
3.62186164049
 20
784.250298473
 10
4.01388087667
 20
784.230058292
 10
67.8702646021
 20
777.779692013
 10
70.4337919941
 20
804.135393931
 10
69.5101749882
 20
804.616850668
 10
53.6891760124
 20
809.851740491
 10
40.7818285607
 20
811.830434879
 10
34.2928122562
 20
812.467885287
 10
31.1711188772
 20
809.941196133
 10
4.14535846608
 20
812.071448878
 10
4.02118894823
 20
812.031766886
 10
3.63736538939
 20
811.949497681
 10
3.24732625364
 20
811.905245912
 10
2.85482783107
 20
811.899437747
 10
2.46365009605
 20
811.932129124
 10
2.07756030402
 20
812.003005206
 10
1.70027671071
 20
812.111383417
 10
1.33543276339
 20
812.256220017
 10
0.986542108713
 20
812.436120149
 10
0.6569647544
 20
812.649351277
 10
0.349874710542
 20
812.893859869
 10
0.0682294221338
 20
813.167291173
 10
-0.185258712735
 20
813.467011897
 10
-0.408148464754
 20
813.790135565
 10
-0.598293283769
 20
814.13355032
 10
-0.753861971227
 20
814.493948891
 10
-0.873356315626
 20
814.867860442
 10
-0.955625521108
 20
815.251684001
 10
-0.999877290251
 20
815.641723137
 10
-1.00568545433
 20
816.03422156
 10
-0.972994077542
 20
816.425399295
 10
-0.902117995724
 20
816.811489087
 10
-0.793739784286
 20
817.18877268
 10
-0.648903184651
 20
817.553616627
 10
-0.616988140055
 20
817.615511306
 10
-0.756794695903
 20
817.906844626
 10
-0.891120391633
 20
818.275687891
 10
-0.988646310383
 20
818.655921295
 10
-1.04843322424
 20
819.043882983
 10
-1.06990535254
 20
819.435836672
 10
-1.05285590696
 20
819.828007634
 10
-0.997449082964
 20
820.216619047
 10
-0.904218478567
 20
820.597928371
 10
-0.774061955452
 20
820.96826339
 10
-0.608232992086
 20
821.324057574
 10
-0.408328612039
 20
821.661884431
 10
-0.176274003769
 20
821.978490503
 10
0.0856960199916
 20
822.270826702
 10
0.375058544708
 20
822.53607767
 10
0.689026851084
 20
822.771688894
 10
1.0245772527
 20
822.975391311
 10
1.37847821575
 20
823.145223153
 10
1.74732148051
 20
823.279548849
 10
2.1275548847
 20
823.377074768
 10
2.51551657278
 20
823.436861682
 10
2.90747026162
 20
823.45833381
 10
3.29964122293
 20
823.441284365
 10
10.1050983544
 20
822.809740861
 10
11.9406286963
 20
823.300205178
 10
2.41504803105
 20
824.170096924
 10
2.02635583662
 20
824.224934178
 10
1.64491029222
 20
824.317605874
 10
1.27438492696
 20
824.447219531
 10
0.918348102649
 20
824.6125269
 10
0.580228648542
 20
824.81193598
 10
0.263282839817
 20
825.043526353
 10
-0.0294369621305
 20
825.305067677
 10
-0.295111705589
 20
825.594041165
 10
-0.531182797547
 20
825.907663846
 10
-0.735376744339
 20
826.242915362
 10
-0.905727046635
 20
826.596567056
 10
-1.0405931379
 20
826.965213071
 10
-1.13867618395
 20
827.345303142
 10
-1.19903159143
 20
827.733176796
 10
-1.22107810478
 20
828.125098597
 10
-1.20460340402
 20
828.517294123
 10
-1.14976614952
 20
828.905986317
 10
-1.05709445403
 20
829.287431862
 10
-0.927480796623
 20
829.657957227
 10
-0.762173427683
 20
830.013994051
 10
-0.562764347538
 20
830.352113505
 10
-0.331173974636
 20
830.669059314
 10
-0.0696326508691
 20
830.961779116
 10
0.219340837842
 20
831.227453859
 10
0.532963518832
 20
831.463524951
 10
0.86821503424
 20
831.667718898
 10
1.2218667287
 20
831.8380692
 10
1.59051274308
 20
831.972935292
 10
1.97060281473
 20
832.071018338
 10
2.35847646849
 20
832.131373745
 10
2.75039826903
 20
832.153420259
 10
3.14259379517
 20
832.136945558
 10
10.4298136042
 20
831.47146462
 10
2.4032154436
 20
832.310999375
 10
2.16075436102
 20
832.348463225
 10
1.92313289424
 20
832.409512018
 10
1.69263946787
 20
832.493557821
 10
1.47149385961
 20
832.599791227
 10
1.26182582257
 20
832.72718915
 10
1.06565457455
 20
832.874524679
 10
0.884869351911
 20
833.040378892
 10
0.721211215173
 20
833.223154521
 10
0.576256281659
 20
833.421091339
 10
0.451400546618
 20
833.632283105
 10
0.347846439032
 20
833.854695927
 10
0.266591241565
 20
834.086187848
 10
0.208417486188
 20
834.324529475
 10
0.173885417965
 20
834.567425446
 10
0.163327599592
 20
834.812536541
 10
0.176845708631
 20
835.057502207
 10
0.214309558301
 20
835.299963289
 10
0.27535835125
 20
835.537584756
 10
0.35940415423
 20
835.768078182
 10
0.465637560215
 20
835.989223791
 10
0.59303548343
 20
836.198891828
 10
0.740371012234
 20
836.395063076
 10
0.906225224941
 20
836.575848298
 10
1.08900085482
 20
836.739506435
 10
1.28693767263
 20
836.884461369
 10
1.49812943863
 20
837.009317104
 10
1.72054226065
 20
837.112871211
 10
1.95203418164
 20
837.194126409
 10
2.19037580785
 20
837.252300164
 10
2.43327177912
 20
837.286832232
 10
2.67838287448
 20
837.297390051
 10
2.92334854009
 20
837.283871942
 10
12.7097961952
 20
836.260267324
 10
12.7867417838
 20
838.396866753
 10
2.24661724866
 20
839.625751674
 10
2.00461720359
 20
839.666086458
 10
1.76773595504
 20
839.729947171
 10
1.53825479894
 20
839.8167188
 10
1.31838376426
 20
839.925565686
 10
1.11024032926
 20
840.055439575
 10
0.915829029
 20
840.20508971
 10
0.73702215058
 20
840.373074879
 10
0.575541701985
 20
840.557777292
 10
0.432942828208
 20
840.757418164
 10
0.310598834356
 20
840.970074844
 10
0.20968795997
 20
841.193699333
 10
0.131182031934
 20
841.426138004
 10
0.0758371052503
 20
841.665152346
 10
0.044186181818
 20
841.90844052
 10
0.0365340773317
 20
842.153659528
 10
0.0529544857407
 20
842.398447777
 10
0.0932892695355
 20
842.640447822
 10
0.157149982699
 20
842.877329071
 10
0.243921611654
 20
843.106810227
 10
0.352768498179
 20
843.326681262
 10
0.482642387255
 20
843.534824697
 10
0.632292522334
 20
843.729235997
 10
0.800277690809
 20
843.908042875
 10
0.984980103676
 20
844.069523324
 10
1.18462097573
 20
844.212122198
 10
1.39727765624
 20
844.334466192
 10
1.62090214513
 20
844.435377066
 10
1.85334081631
 20
844.513882994
 10
2.09235515832
 20
844.569227921
 10
2.33564333239
 20
844.600878844
 10
2.58086234041
 20
844.608530949
 10
2.82565058928
 20
844.59211054
 10
15.6485930177
 20
843.097069326
 10
28.1284507106
 20
841.734559467
 10
28.3707395619
 20
841.695997451
 10
28.6080819876
 20
841.63387266
 10
28.8381922505
 20
841.548783392
 10
29.0588542627
 20
841.441549102
 10
29.2679429286
 20
841.313202515
 10
29.4634446101
 20
841.164979679
 10
29.6434765189
 20
840.998308061
 10
29.8063048495
 20
840.814792799
 10
29.950361476
 20
840.616201246
 10
30.0742590543
 20
840.404445947
 10
30.1768043831
 20
840.181566221
 10
30.2570098947
 20
839.949708522
 10
30.3141031663
 20
839.711105767
 10
30.3475343584
 20
839.468055829
 10
30.3569815104
 20
839.222899414
 10
30.3423536409
 20
838.977997511
 10
30.3037916245
 20
838.73570866
 10
30.2416668344
 20
838.498366234
 10
30.1565775663
 20
838.268255971
 10
30.0493432764
 20
838.047593959
 10
29.9209966894
 20
837.838505293
 10
29.7727738533
 20
837.643003612
 10
29.6061022348
 20
837.462971703
 10
29.4225869729
 20
837.300143372
 10
29.2239954198
 20
837.156086746
 10
29.0122401208
 20
837.032189168
 10
28.789360395
 20
836.929643839
 10
28.5575026962
 20
836.849438327
 10
28.3188999407
 20
836.792345056
 10
28.0758500035
 20
836.758913864
 10
27.8306935883
 20
836.749466712
 10
27.5857916854
 20
836.764094581
 10
17.7697764302
 20
837.835774875
 10
17.6927378141
 20
835.69659229
 10
30.1047193505
 20
834.168895032
 10
34.9215326076
 20
872.18023326
 10
34.9899298225
 20
872.566769891
 10
35.0958849013
 20
872.944741144
 10
35.2383774388
 20
873.310506948
 10
35.4160351539
 20
873.660544778
 10
35.6271471057
 20
873.99148358
 10
35.8696801706
 20
874.300136231
 10
36.1412986228
 20
874.583530237
 10
36.439386628
 20
874.83893636
 10
36.7610734357
 20
875.063894899
 10
37.1032610263
 20
875.25623938
 10
37.462653946
 20
875.414117421
 10
37.8357910447
 20
875.536008569
 10
38.219078808
 20
875.620738947
 10
38.6088259654
 20
875.667492555
 10
39.0012790386
 20
875.675819129
 10
39.3926584899
 20
875.645638481
 10
39.7791951214
 20
875.577241266
 10
40.157166374
 20
875.471286187
 10
40.5229321778
 20
875.32879365
 10
40.8729700083
 20
875.151135934
 10
41.2039088097
 20
874.940023983
 10
41.5125614606
 20
874.697490918
 10
41.7959554671
 20
874.425872466
 10
42.0513615901
 20
874.12778446
 10
42.2763201289
 20
873.806097653
 10
42.46866461
 20
873.463910062
 10
42.6265426507
 20
873.104517142
 10
42.7484337992
 20
872.731380044
 10
42.8331641771
 20
872.34809228
 10
42.8799177847
 20
871.958345123
 10
42.888244359
 20
871.56589205
 10
42.8580637107
 20
871.174512598
 10
38.0448530458
 20
833.19160382
 10
58.3942453336
 20
830.686950496
 10
66.6418022256
 20
833.558741925
 10
67.9098141995
 20
833.65768201
 10
73.2146674227
 20
832.69603397
 10
73.6948929658
 20
837.581973401
 10
74.3296807451
 20
844.216413031
 10
72.8680179161
 20
873.514300777
 10
72.8641127983
 20
873.621375826
 10
72.6437366781
 20
883.175903247
 10
72.6429269563
 20
883.223075298
 10
72.5143097697
 20
894.638800244
 10
72.5209581685
 20
894.918747777
 10
73.1795904867
 20
906.115706141
 10
73.1910847597
 20
906.26401135
 10
74.5440541652
 20
920.322318589
 10
75.0339652592
 20
925.556689395
 10
72.1824456502
 20
926.586530807
 10
51.8606285873
 20
929.642530524
 10
43.6235848672
 20
930.535941698
 10
41.3856102247
 20
908.827078551
 10
41.3592459358
 20
908.640551226
 10
39.1027449217
 20
896.104786788
 10
39.0605878669
 20
895.913781083
 10
34.0339921233
 20
876.737559336
 10
34.0077396999
 20
876.644745916
 10
32.0340952362
 20
870.148308877
 10
31.9760091263
 20
869.979127391
 10
30.1579300993
 20
865.242719716
 10
29.8384289198
 20
864.658090162
 10
27.1180738206
 20
860.956669469
 10
26.7403496532
 20
860.547459319
 10
21.1312878453
 20
855.68934452
 10
20.6957431044
 20
855.386559953
 10
11.2832641037
 20
850.22985309
 10
10.9578958635
 20
850.080805649
 10
3.28252829264
 20
847.209968363
 10
3.04879728021
 20
847.135398058
 10
2.80888257842
 20
847.084096475
 10
2.56509469699
 20
847.056557675
 10
2.31978144649
 20
847.053046874
 10
2.07530532762
 20
847.073597881
 10
1.83402077906
 20
847.11801278
 10
1.5982515029
 20
847.18586383
 10
1.37026808616
 20
847.276497589
 10
1.15226613377
 20
847.389041205
 10
0.946345123709
 20
847.52241082
 10
0.754488187863
 20
847.675322012
 10
0.578543013409
 20
847.846302164
 10
0.420204048557
 20
848.033704642
 10
0.280996184095
 20
848.235724658
 10
0.162260067857
 20
848.45041665
 10
0.0651391935507
 20
848.675713015
 10
-0.00943111171325
 20
848.909444028
 10
-0.0607326951307
 20
849.14935873
 10
-0.0882714944091
 20
849.393146611
 10
-0.0917822958571
 20
849.638459862
 10
-0.0712312885377
 20
849.88293598
 10
-0.0268163898855
 20
850.124220529
 10
0.0410346603457
 20
850.359989805
 10
0.131668419451
 20
850.587973222
 10
0.244212034785
 20
850.805975174
 10
0.377581649809
 20
851.011896184
 10
0.530492842223
 20
851.20375312
 10
0.701472993655
 20
851.379698295
 10
0.888875471779
 20
851.53803726
 10
1.09089548829
 20
851.677245124
 10
1.30558747998
 20
851.79598124
 10
1.53088384562
 20
851.893102115
 10
9.03821943795
 20
854.701089971
 10
18.059437429
 20
859.643441155
 10
23.2550859054
 20
864.143490827
 10
25.6104589065
 20
867.348302717
 10
27.2760167909
 20
871.687366658
 10
29.2096247688
 20
878.052019824
 10
34.1991721851
 20
897.086903979
 10
36.421635189
 20
909.433573675
 10
38.9033598771
 20
933.506867716
 10
41.764281687
 20
974.872226479
 10
41.7652176977
 20
974.885264726
 10
42.8098080595
 20
988.922071384
 10
42.8399983472
 20
989.165545127
 10
42.8939078604
 20
989.40488731
 10
42.971017421
 20
989.63779294
 10
43.0705844218
 20
989.862019007
 10
43.191649978
 20
990.075406091
 10
43.3330481623
 20
990.275899158
 10
43.4934172328
 20
990.461567351
 10
43.6712127477
 20
990.630622583
 10
43.864722439
 20
990.78143676
 10
44.0720827026
 20
990.912557459
 10
44.2912965458
 20
991.022721916
 10
44.5202528195
 20
991.110869186
 10
44.7567465495
 20
991.176150365
 10
44.998500172
 20
991.217936757
 10
45.2431854674
 20
991.235825938
 10
45.4884459827
 20
991.229645625
 10
45.7319197248
 20
991.199455337
 10
45.9712619087
 20
991.145545824
 10
46.2041675382
 20
991.068436264
 10
46.4283936049
 20
990.968869263
 10
46.641780689
 20
990.847803707
 10
46.8422737564
 20
990.706405522
 10
47.0279419492
 20
990.546036452
 10
47.1969971813
 20
990.368240937
 10
47.3478113582
 20
990.174731246
 10
47.4789320571
 20
989.967370982
 10
47.5890965139
 20
989.748157139
 10
47.6772437848
 20
989.519200865
 10
47.7425249632
 20
989.282707135
 10
47.7843113558
 20
989.040953513
 10
47.8022005367
 20
988.796268217
 10
47.7960202234
 20
988.551007702
 10
46.7519149104
 20
974.520718943
 10
44.0544356081
 20
935.518534854
 10
52.451013285
 20
934.607820212
 10
52.5019224849
 20
934.599754482
 10
52.5532082618
 20
934.594599705
 10
73.170683755
 20
931.494138803
 10
73.1718697313
 20
931.493900431
 10
73.1730732438
 20
931.49377829
 10
73.2921309407
 20
931.469728895
 10
73.4112118284
 20
931.445794594
 10
73.4123687294
 20
931.445441124
 10
73.4135544747
 20
931.445201606
 10
73.5296816233
 20
931.409598321
 10
73.6458431322
 20
931.374107302
 10
73.6469598163
 20
931.373642138
 10
73.6481163751
 20
931.37328755
 10
75.6096345756
 20
930.664874861
 10
76.0651596536
 20
934.418141042
 10
76.0797186868
 20
934.525844388
 10
77.1425522587
 20
941.657160425
 10
83.1785454939
 20
989.959898878
 10
83.2462733968
 20
990.346553346
 10
83.3515739367
 20
990.724707472
 10
83.4934330116
 20
991.090719424
 10
83.6704844412
 20
991.441064308
 10
83.8810231235
 20
991.772368111
 10
84.1230214558
 20
992.081440196
 10
84.3941488619
 20
992.36530403
 10
84.6917942367
 20
992.621225848
 10
85.0130910925
 20
992.846740985
 10
85.3549451649
 20
993.039677606
 10
85.7140642123
 20
993.198177626
 10
86.0869897221
 20
993.320714603
 10
86.4701302176
 20
993.406108438
 10
86.8597958465
 20
993.453536744
 10
87.2522339158
 20
993.462542758
 10
87.6436650322
 20
993.433039749
 10
88.0303195003
 20
993.365311846
 10
88.408473626
 20
993.260011306
 10
88.7744855784
 20
993.118152231
 10
89.1248304625
 20
992.941100801
 10
89.4561342653
 20
992.730562119
 10
89.7652063501
 20
992.488563787
 10
90.049070184
 20
992.217436381
 10
90.3049920028
 20
991.919791006
 10
90.5305071397
 20
991.59849415
 10
90.7234437606
 20
991.256640078
 10
90.8819437803
 20
990.89752103
 10
91.004480757
 20
990.52459552
 10
91.0898745926
 20
990.141455025
 10
91.1373028979
 20
989.751789396
 10
91.1463089123
 20
989.359351327
 10
91.116805903
 20
988.96792021
 10
87.5850051388
 20
960.704858617
 10
88.4785195647
 20
962.543869211
 10
91.4518272149
 20
990.037899741
 10
91.5131306419
 20
990.42562469
 10
91.612142567
 20
990.805473852
 10
91.7479094511
 20
991.173789069
 10
91.9191237849
 20
991.527023267
 10
92.1241366809
 20
991.861774606
 10
92.3609737527
 20
992.174819248
 10
92.6273541298
 20
992.463142402
 10
92.9207124237
 20
992.723967359
 10
93.2382234336
 20
992.95478223
 10
93.5768293549
 20
993.153364144
 10
93.9332692274
 20
993.317800648
 10
94.3041103404
 20
993.446508128
 10
94.6857812912
 20
993.538247061
 10
95.0746063799
 20
993.592133951
 10
95.4668410083
 20
993.607649837
 10
95.8587077427
 20
993.584645294
 10
96.246432692
 20
993.523341867
 10
96.6262818531
 20
993.424329941
 10
96.9945970709
 20
993.288563057
 10
97.3478312685
 20
993.117348724
 10
97.6825826076
 20
992.912335828
 10
97.9956272496
 20
992.675498756
 10
98.2839504036
 20
992.409118379
 10
98.5447753601
 20
992.115760085
 10
98.775590232
 20
991.798249075
 10
98.974172146
 20
991.459643154
 10
99.1386086497
 20
991.103203281
 10
99.2673161297
 20
990.732362168
 10
99.3590550626
 20
990.350691217
 10
99.4129419523
 20
989.961866129
 10
99.4284578387
 20
989.5696315
 10
99.4054532951
 20
989.177764766
 10
96.3573134985
 20
960.991765036
 10
95.9783172401
 20
959.67377234
 10
92.3835780298
 20
952.275163769
 10
92.2233962948
 20
951.978067409
 10
84.946052128
 20
939.745823653
 10
84.0003344173
 20
933.400322292
 10
83.1382097725
 20
926.296908167
 10
82.5087540644
 20
919.571596936
 10
82.5077633271
 20
919.561159034
 10
81.7080708752
 20
911.251789924
 10
93.8760776607
 20
917.993617005
 10
103.080793683
 20
990.100482207
 10
103.123763824
 20
990.342028235
 10
103.190202704
 20
990.578199342
 10
103.279470478
 20
990.806721072
 10
103.390707451
 20
991.025392635
 10
103.522842348
 20
991.232108105
 10
103.674602639
 20
991.424876699
 10
103.844526789
 20
991.601841949
 10
104.030978336
 20
991.761299584
 10
104.232161648
 20
991.90171394
 10
104.446139222
 20
992.021732749
 10
104.670850336
 20
992.120200165
 10
104.904130898
 20
992.196167893
 10
105.143734291
 20
992.248904321
 10
105.387353001
 20
992.27790157
 10
105.632640849
 20
992.28288038
 10
105.877235577
 20
992.263792803
 10
106.118781605
 20
992.220822661
 10
106.354952712
 20
992.154383781
 10
106.583474442
 20
992.065116007
 10
106.802146005
 20
991.953879034
 10
107.008861475
 20
991.821744137
 10
107.201630068
 20
991.669983846
 10
107.378595319
 20
991.500059696
 10
107.538052954
 20
991.31360815
 10
107.67846731
 20
991.112424837
 10
107.798486119
 20
990.898447263
 10
107.896953535
 20
990.67373615
 10
107.972921262
 20
990.440455587
 10
108.025657691
 20
990.200852194
 10
108.05465494
 20
989.957233484
 10
108.05963375
 20
989.711945636
 10
108.040546172
 20
989.467350908
 10
99.7642982227
 20
924.633814072
 10
102.840147989
 20
928.339142863
 10
106.166130206
 20
933.459886083
 10
123.661908339
 20
964.143432938
 10
123.785205688
 20
964.3382114
 10
126.449972869
 20
968.147162348
 10
126.35963738
 20
990.19846479
 10
126.377292175
 20
990.590608966
 10
126.433298808
 20
990.979134388
 10
126.527117904
 20
991.360299344
 10
126.657845935
 20
991.730433007
 10
126.824223918
 20
992.085970788
 10
127.024649542
 20
992.423488662
 10
127.257192599
 20
992.73973615
 10
127.519613571
 20
993.031667614
 10
127.809385202
 20
993.296471594
 10
128.123716833
 20
993.531597885
 10
128.459581277
 20
993.734782091
 10
128.813743977
 20
993.904067437
 10
129.182794153
 20
994.037823612
 10
129.563177649
 20
994.134762472
 10
129.951231164
 20
994.193950443
 10
130.343217531
 20
994.214817511
 10
130.735361707
 20
994.197162716
 10
131.123887129
 20
994.141156084
 10
131.505052085
 20
994.047336987
 10
131.875185748
 20
993.916608956
 10
132.230723528
 20
993.750230973
 10
132.568241403
 20
993.549805349
 10
132.88448889
 20
993.317262293
 10
133.176420354
 20
993.05484132
 10
133.441224335
 20
992.765069689
 10
133.676350625
 20
992.450738058
 10
133.879534831
 20
992.114873614
 10
134.048820177
 20
991.760710914
 10
134.182576353
 20
991.391660738
 10
134.279515213
 20
991.011277242
 10
134.338703183
 20
990.623223727
 10
134.359570252
 20
990.23123736
 10
134.403467636
 20
979.515687015
 10
134.746674725
 20
980.006258566
 10
134.706951876
 20
990.310034776
 10
134.709538191
 20
990.310044747
 10
134.71327863
 20
990.606522511
 10
134.756679515
 20
990.996657243
 10
134.838111305
 20
991.38065934
 10
134.956789766
 20
991.75483065
 10
135.111571959
 20
992.1155677
 10
135.300967248
 20
992.459396395
 10
135.523151652
 20
992.783005475
 10
135.775985414
 20
993.08327841
 10
136.057033606
 20
993.357323406
 10
136.363589582
 20
993.60250126
 10
136.692701039
 20
993.816450776
 10
137.041198454
 20
993.997111503
 10
137.405725607
 20
994.142743578
 10
137.782771901
 20
994.251944487
 10
138.168706175
 20
994.323662564
 10
138.559811671
 20
994.357207124
 10
138.952321829
 20
994.352255116
 10
139.342456562
 20
994.30885423
 10
139.726458658
 20
994.227422441
 10
140.100629969
 20
994.10874398
 10
140.461367019
 20
993.953961787
 10
140.805195713
 20
993.764566498
 10
141.128804794
 20
993.542382094
 10
141.429077728
 20
993.289548332
 10
141.703122724
 20
993.00850014
 10
141.948300579
 20
992.701944164
 10
142.162250095
 20
992.372832707
 10
142.342910821
 20
992.024335292
 10
142.488542897
 20
991.659808139
 10
142.597743805
 20
991.282761845
 10
142.669461882
 20
990.896827571
 10
142.703006443
 20
990.505722075
 10
142.704262062
 20
990.471310218
 10
142.706892427
 20
990.340875938
 10
142.707150194
 20
990.274013408
 10
144.529874423
 20
992.207541276
 10
144.706721098
 20
992.377588828
 10
144.899383784
 20
992.529483549
 10
145.106007031
 20
992.66176261
 10
145.324600947
 20
992.773152092
 10
145.553060352
 20
992.862579252
 10
145.789185057
 20
992.929182859
 10
146.030701052
 20
992.972321482
 10
146.275282405
 20
992.991579674
 10
146.520573666
 20
992.986771968
 10
146.764212545
 20
992.957944664
 10
147.003852666
 20
992.905375386
 10
147.237186163
 20
992.829570403
 10
147.461965909
 20
992.73125976
 10
147.676027151
 20
992.611390242
 10
147.877308362
 20
992.471116258
 10
148.063871094
 20
992.311788722
 10
148.233918646
 20
992.134942047
 10
148.385813367
 20
991.942279362
 10
148.518092428
 20
991.735656114
 10
148.62948191
 20
991.517062198
 10
148.71890907
 20
991.288602793
 10
148.785512677
 20
991.052478089
 10
148.8286513
 20
990.810962094
 10
148.847909492
 20
990.56638074
 10
148.843101786
 20
990.321089479
 10
148.814274482
 20
990.077450601
 10
148.761705204
 20
989.83781048
 10
148.685900221
 20
989.604476982
 10
148.587589579
 20
989.379697236
 10
148.46772006
 20
989.165635994
 10
148.327446076
 20
988.964354783
 10
148.16811854
 20
988.777792051
 10
143.5817082
 20
983.912573242
 10
142.736333081
 20
982.704215384
 10
143.12939257
 20
880.747857124
 10
147.615695929
 20
877.277881492
 10
158.399578789
 20
871.861794204
 10
157.279734116
 20
885.813374937
 10
157.268479898
 20
886.245446264
 10
157.708956305
 20
901.965719807
 10
158.474161338
 20
929.779300162
 10
159.591636113
 20
978.399653856
 10
159.596928187
 20
978.533009784
 10
160.301819112
 20
991.02972088
 10
160.343129605
 20
991.420082495
 10
160.422503304
 20
991.804515274
 10
160.5391758
 20
992.179316922
 10
160.692023471
 20
992.540877893
 10
160.879574312
 20
992.885716158
 10
161.100022105
 20
993.210510735
 10
161.351243816
 20
993.512133675
 10
161.630820045
 20
993.787680185
 10
161.936058318
 20
994.0344966
 10
162.264019026
 20
994.250205944
 10
162.611543725
 20
994.432730818
 10
162.975285565
 20
994.580313408
 10
163.351741511
 20
994.691532412
 10
163.737286088
 20
994.765316731
 10
164.12820629
 20
994.800955781
 10
164.520737343
 20
994.798106339
 10
164.911098957
 20
994.756795847
 10
165.295531737
 20
994.677422147
 10
165.670333385
 20
994.560749652
 10
166.031894356
 20
994.40790198
 10
166.37673262
 20
994.22035114
 10
166.701527197
 20
993.999903347
 10
167.003150137
 20
993.748681635
 10
167.278696647
 20
993.469105407
 10
167.525513062
 20
993.163867133
 10
167.741222406
 20
992.835906426
 10
167.92374728
 20
992.488381727
 10
168.07132987
 20
992.124639887
 10
168.182548874
 20
991.748183941
 10
168.256333193
 20
991.362639364
 10
168.291972243
 20
990.971719161
 10
168.289122801
 20
990.579188109
 10
167.587990431
 20
978.149110827
 10
166.471841213
 20
929.586430928
 10
166.471384341
 20
929.568335325
 10
165.966406125
 20
911.213447987
 10
171.297613117
 20
916.12212557
 10
171.599088122
 20
916.37352479
 10
171.923752875
 20
916.594163736
 10
172.268480677
 20
916.781917535
 10
172.629951611
 20
916.934978015
 10
173.004684514
 20
917.051871119
 10
173.389070503
 20
917.131471104
 10
173.779407732
 20
917.173011377
 10
174.171937039
 20
917.176091883
 10
174.562878153
 20
917.140682956
 10
174.948466097
 20
917.067125603
 10
175.324987447
 20
916.956128221
 10
175.688816099
 20
916.808759775
 10
176.036448183
 20
916.626439505
 10
176.364535811
 20
916.410923254
 10
176.669919322
 20
916.164286562
 10
176.949657704
 20
915.888904674
 10
177.201056924
 20
915.587429669
 10
177.42169587
 20
915.262764916
 10
177.609449669
 20
914.918037114
 10
177.762510148
 20
914.55656618
 10
177.879403253
 20
914.181833277
 10
177.959003237
 20
913.797447287
 10
178.000543511
 20
913.407110058
 10
178.003624017
 20
913.014580751
 10
177.96821509
 20
912.623639638
 10
177.894657737
 20
912.238051694
 10
177.783660355
 20
911.861530343
 10
177.636291909
 20
911.497701692
 10
177.453971639
 20
911.150069608
 10
177.238455388
 20
910.821981979
 10
176.991818695
 20
910.516598469
 10
176.716436808
 20
910.236860087
 10
165.658568964
 20
900.055393097
 10
165.271403117
 20
886.237717209
 10
166.828117303
 20
866.843399268
 10
166.846943231
 20
866.60748221
 10
171.549670859
 20
863.011915941
 10
185.859008492
 20
865.089259269
 10
186.103238758
 20
865.112550769
 10
186.348575954
 20
865.111791362
 10
186.59265735
 20
865.08698836
 10
186.833132308
 20
865.038380632
 10
187.067684922
 20
864.966436296
 10
187.294056324
 20
864.871848214
 10
187.510066432
 20
864.755527323
 10
187.713634951
 20
864.618593855
 10
187.902801406
 20
864.462366556
 10
188.075744019
 20
864.288349978
 10
188.230797259
 20
864.098219998
 10
188.366467878
 20
863.89380767
 10
188.481449294
 20
863.677081598
 10
188.574634173
 20
863.450128971
 10
188.645125094
 20
863.215135468
 10
188.692243191
 20
862.974364204
 10
188.715534691
 20
862.730133938
 10
188.714775284
 20
862.484796742
 10
188.689972283
 20
862.240715346
 10
188.641364554
 20
862.000240388
 10
188.569420218
 20
861.765687774
 10
188.474832136
 20
861.539316372
 10
188.358511245
 20
861.323306264
 10
188.221577778
 20
861.119737744
 10
188.065350478
 20
860.93057129
 10
187.891333901
 20
860.757628677
 10
187.70120392
 20
860.602575437
 10
187.496791593
 20
860.466904818
 10
187.28006552
 20
860.351923402
 10
187.053112893
 20
860.258738523
 10
186.81811939
 20
860.188247601
 10
186.577348126
 20
860.141129504
 10
171.226469296
 20
857.912581507
 10
169.348844021
 20
858.400621964
 10
167.381830661
 20
859.904542124
 10
169.510465476
 20
833.229561848
 10
171.803405856
 20
820.093708629
 10
177.210897594
 20
789.021196706
 10
178.981416523
 20
793.281644463
 10
181.965606029
 20
802.243748525
 10
182.18007258
 20
802.762968038
 10
192.548090822
 20
823.585255457
 10
195.26461812
 20
829.060640284
 10
202.840884702
 20
863.278586523
 10
202.860544025
 20
863.363030461
 10
206.293214226
 20
877.416150141
 10
206.629542023
 20
878.311327993
 10
245.593360248
 20
953.29762185
 10
248.80665816
 20
955.43914543
 10
268.619963749
 20
957.110027182
 10
276.301810016
 20
973.696935376
 10
274.329754758
 20
990.19094046
 10
273.903369699
 20
992.241498667
 10
273.865269589
 20
992.483860582
 10
273.851108563
 20
992.728789923
 10
273.861023
 20
992.973927885
 10
273.894917418
 20
993.216913657
 10
273.952465396
 20
993.455407151
 10
274.033112715
 20
993.687111546
 10
274.136082697
 20
993.909795401
 10
274.260383686
 20
994.121314149
 10
274.404818593
 20
994.31963075
 10
274.567996434
 20
994.502835305
 10
274.748345715
 20
994.669163454
 10
274.944129575
 20
994.817013368
 10
275.153462507
 20
994.94496117
 10
275.374328522
 20
995.051774652
 10
275.604600559
 20
995.136425144
 10
275.842060972
 20
995.198097413
 10
276.084422887
 20
995.236197523
 10
276.329352228
 20
995.250358549
 10
276.57449019
 20
995.240444112
 10
276.817475962
 20
995.206549694
 10
277.055969456
 20
995.149001716
 10
277.287673851
 20
995.068354397
 10
277.510357706
 20
994.965384415
 10
277.721876454
 20
994.841083426
 10
277.920193055
 20
994.696648518
 10
278.10339761
 20
994.533470678
 10
278.269725759
 20
994.353121397
 10
278.417575673
 20
994.157337537
 10
278.545523475
 20
993.948004605
 10
278.652336957
 20
993.72713859
 10
278.736987449
 20
993.496866553
 10
278.798659718
 20
993.25940614
 10
279.246947768
 20
991.103512729
 10
279.26364068
 20
990.997325999
 10
279.281623259
 20
990.891350049
 10
281.350625126
 20
973.586496557
 10
281.136829937
 20
972.239090009
 10
273.131761508
 20
954.954269341
 10
273.269039023
 20
954.65315166
 10
273.280017644
 20
954.621054515
 10
285.387353351
 20
950.806011819
 10
300.773371693
 20
953.452454643
 10
306.123793832
 20
965.806449104
 10
299.665230509
 20
992.611756815
 10
299.619534911
 20
992.852802099
 10
299.59768592
 20
993.097165636
 10
299.599893952
 20
993.342494071
 10
299.626137744
 20
993.586424758
 10
299.676164553
 20
993.826608511
 10
299.749492595
 20
994.060732228
 10
299.845415678
 20
994.286541171
 10
299.963010013
 20
994.501860675
 10
300.101143101
 20
994.704617097
 10
300.258484645
 20
994.892857781
 10
300.43351936
 20
995.064769866
 10
300.624561566
 20
995.218697746
 10
300.829771422
 20
995.35315901
 10
301.047172646
 20
995.466858723
 10
301.274671543
 20
995.558701895
 10
301.510077177
 20
995.627804025
 10
301.751122461
 20
995.673499622
 10
301.995485998
 20
995.695348614
 10
302.240814433
 20
995.693140581
 10
302.48474512
 20
995.666896789
 10
302.724928872
 20
995.61686998
 10
302.959052589
 20
995.543541939
 10
303.184861532
 20
995.447618855
 10
303.400181037
 20
995.33002452
 10
303.602937459
 20
995.191891432
 10
303.791178143
 20
995.034549888
 10
303.963090228
 20
994.859515173
 10
304.117018108
 20
994.668472967
 10
304.251479372
 20
994.463263111
 10
304.365179085
 20
994.245861888
 10
304.457022256
 20
994.01836299
 10
304.526124386
 20
993.782957357
 10
310.183396256
 20
970.303290798
 10
328.243021468
 20
986.963196514
 10
326.900887971
 20
993.139408573
 10
326.860616539
 20
993.381419168
 10
326.844260211
 20
993.626211707
 10
326.851976508
 20
993.871428704
 10
326.883691118
 20
994.114708584
 10
326.939098611
 20
994.35370843
 10
327.017665383
 20
994.586126542
 10
327.118634794
 20
994.809724607
 10
327.241034452
 20
995.022349253
 10
327.383685583
 20
995.221952789
 10
327.545214377
 20
995.406612924
 10
327.724065224
 20
995.574551279
 10
327.918515692
 20
995.724150517
 10
328.126693118
 20
995.853969914
 10
328.346592639
 20
995.96275924
 10
328.576096502
 20
996.049470793
 10
328.81299446
 20
996.113269494
 10
329.055005055
 20
996.153540926
 10
329.299797594
 20
996.169897254
 10
329.545014591
 20
996.162180957
 10
329.788294471
 20
996.130466347
 10
330.027294317
 20
996.075058854
 10
330.259712429
 20
995.996492081
 10
330.483310494
 20
995.895522671
 10
330.69593514
 20
995.773123012
 10
330.895538676
 20
995.630471882
 10
331.080198811
 20
995.468943088
 10
331.248137166
 20
995.290092241
 10
331.397736404
 20
995.095641772
 10
331.527555801
 20
994.887464346
 10
331.636345127
 20
994.667564826
 10
331.72305668
 20
994.438060963
 10
331.78685538
 20
994.201163005
 10
333.432833129
 20
986.626724517
 10
332.684971786
 20
984.258305417
 10
310.833861627
 20
964.100775526
 10
304.824078643
 20
950.224332925
 10
302.953772639
 20
948.754066798
 10
285.637740061
 20
945.775655546
 10
284.46261832
 20
945.855047988
 10
271.776167086
 20
949.852571001
 10
271.72775015
 20
949.817705631
 10
271.388255577
 20
949.620646803
 10
271.031080621
 20
949.457813154
 10
270.659665071
 20
949.330772862
 10
270.277585862
 20
949.240749394
 10
269.888522627
 20
949.188609724
 10
251.675720509
 20
947.652700506
 10
213.950454438
 20
875.050013803
 10
210.642346839
 20
861.506844989
 10
202.970022386
 20
826.855056695
 10
202.647837298
 20
825.941998201
 10
199.713275801
 20
820.027147463
 10
199.710714044
 20
820.021993348
 10
189.466921559
 20
799.44919087
 10
186.525907793
 20
790.616751992
 10
186.473464202
 20
790.48174816
 10
186.441396647
 20
790.392451531
 10
190.85959789
 20
782.564813392
 10
195.817384519
 20
775.652522506
 10
212.005712165
 20
757.362594542
 10
228.962231969
 20
738.656034427
 10
255.790363368
 20
713.008024266
 10
275.123272243
 20
707.469116926
 10
276.250841976
 20
725.807298728
 10
276.251702283
 20
725.820702402
 10
279.817297523
 20
779.132277253
 10
279.831663691
 20
779.280559554
 10
284.915804825
 20
819.294450686
 10
284.945484527
 20
819.47494793
 10
287.174307617
 20
830.494582101
 10
287.245370458
 20
830.766331339
 10
291.102338262
 20
842.725432771
 10
291.308311476
 20
843.193615846
 10
297.073988712
 20
853.335545842
 10
297.1362327
 20
853.439124646
 10
315.128453994
 20
881.803500801
 10
315.238019977
 20
881.962328178
 10
324.903858172
 20
894.877649463
 10
324.935089551
 20
894.915376653
 10
324.963956844
 20
894.954761826
 10
325.012976449
 20
895.009463241
 10
325.060024976
 20
895.066297387
 10
357.06991972
 20
930.089476796
 10
357.090215506
 20
930.111418308
 10
378.429703223
 20
952.906383732
 10
393.419910303
 20
979.513746288
 10
393.84321598
 20
994.901546987
 10
393.861987988
 20
995.146166137
 10
393.904646474
 20
995.3877674
 10
393.970780611
 20
995.624024024
 10
394.059753494
 20
995.852660728
 10
394.170708264
 20
996.071475617
 10
394.302576366
 20
996.278361384
 10
394.454087838
 20
996.471325604
 10
394.623783542
 20
996.648509928
 10
394.810029215
 20
996.808207973
 10
395.011031211
 20
996.948881761
 10
395.224853769
 20
997.069176524
 10
395.449437662
 20
997.16793376
 10
395.682620024
 20
997.244202382
 10
395.922155182
 20
997.297247881
 10
396.16573628
 20
997.3265594
 10
396.4110175
 20
997.331854654
 10
396.655636649
 20
997.313082646
 10
396.897237912
 20
997.270424161
 10
397.133494536
 20
997.204290023
 10
397.362131241
 20
997.115317141
 10
397.58094613
 20
997.004362371
 10
397.787831896
 20
996.872494269
 10
397.980796117
 20
996.720982797
 10
398.157980441
 20
996.551287093
 10
398.317678486
 20
996.365041419
 10
398.458352273
 20
996.164039424
 10
398.578647037
 20
995.950216865
 10
398.677404273
 20
995.725632972
 10
398.753672894
 20
995.49245061
 10
398.806718394
 20
995.252915453
 10
398.836029913
 20
995.009334355
 10
398.841325167
 20
994.764053135
 10
398.400993276
 20
978.757323885
 10
398.080052723
 20
977.598952549
 10
382.638358445
 20
950.190207895
 10
382.285317072
 20
949.708785915
 10
360.750574314
 20
926.705247916
 10
332.142755444
 20
895.404402325
 10
353.191327044
 20
893.451049219
 10
383.363793209
 20
891.307073709
 10
390.396147793
 20
891.313969963
 10
398.857704068
 20
893.116677828
 10
401.765736772
 20
897.054181961
 10
402.153647779
 20
897.470430602
 10
415.751767217
 20
909.077763867
 10
415.753303351
 20
909.078664797
 10
415.758063833
 20
909.083120678
 10
425.204679216
 20
917.092889532
 10
428.049870662
 20
919.515195891
 10
426.214785938
 20
924.688594864
 10
422.769809728
 20
926.628281331
 10
421.972555008
 20
927.338999012
 10
417.903708541
 20
932.949497066
 10
417.463253558
 20
933.996046817
 10
416.36685101
 20
940.411240782
 10
416.331496323
 20
940.789044089
 10
416.198801956
 20
948.43899147
 10
416.412423055
 20
949.494372533
 10
419.035756069
 20
955.420074001
 10
418.723217961
 20
961.142755643
 10
417.351014827
 20
965.229793135
 10
410.602605442
 20
976.230101814
 10
410.533909795
 20
976.349320839
 10
402.379691701
 20
991.44646225
 10
400.230322645
 20
992.814492413
 10
400.03006416
 20
992.956222635
 10
399.844661965
 20
993.116899151
 10
399.675901585
 20
993.294974559
 10
399.525408275
 20
993.488733894
 10
399.394631367
 20
993.69631115
 10
399.284830315
 20
993.915707243
 10
399.197062562
 20
994.144809268
 10
399.13217336
 20
994.381410849
 10
399.090787629
 20
994.623233383
 10
399.073303933
 20
994.867947986
 10
399.079890653
 20
995.113197923
 10
399.110484353
 20
995.356621304
 10
399.164790399
 20
995.595873827
 10
399.242285796
 20
995.828651361
 10
399.342224218
 20
996.05271213
 10
399.463643206
 20
996.265898307
 10
399.605373428
 20
996.466156792
 10
399.766049944
 20
996.651558986
 10
399.944125352
 20
996.820319366
 10
400.137884687
 20
996.970812676
 10
400.345461943
 20
997.101589584
 10
400.564858035
 20
997.211390637
 10
400.793960061
 20
997.299158389
 10
401.030561642
 20
997.364047591
 10
401.272384176
 20
997.405433323
 10
401.517098779
 20
997.422917018
 10
401.762348716
 20
997.416330299
 10
402.005772097
 20
997.385736599
 10
402.24502462
 20
997.331430552
 10
402.477802154
 20
997.253935156
 10
402.701862923
 20
997.153996733
 10
402.915049099
 20
997.032577745
 10
405.612797
 20
995.315515479
 10
406.470089941
 20
994.39454383
 10
414.90051532
 20
978.786017957
 10
421.761522531
 20
967.602168125
 10
422.000549862
 20
967.090590079
 10
423.571012814
 20
962.413045765
 10
423.69730493
 20
961.753665418
 10
424.061052903
 20
955.093313324
 10
423.850775825
 20
953.944958562
 10
421.207611725
 20
947.974461754
 10
421.327444316
 20
941.066007066
 10
422.293584055
 20
935.412997754
 10
425.69925806
 20
930.716942611
 10
429.484294067
 20
928.585786205
 10
430.613895318
 20
927.243124255
 10
431.993140589
 20
923.354810011
 10
438.374231579
 20
929.918523869
 10
442.09749753
 20
936.278109034
 10
438.855139967
 20
995.476783031
 10
438.853759032
 20
995.722117516
 10
438.876431731
 20
995.966406004
 10
438.922939714
 20
996.207295863
 10
438.992835083
 20
996.442467192
 10
439.085444709
 20
996.669655162
 10
439.199876708
 20
996.88667183
 10
439.33502904
 20
997.091427206
 10
439.489600112
 20
997.281949383
 10
439.662101322
 20
997.45640353
 10
439.850871388
 20
997.613109557
 10
440.05409235
 20
997.750558299
 10
440.269807082
 20
997.867426051
 10
440.49593813
 20
997.962587312
 10
440.73030773
 20
998.035125626
 10
440.970658775
 20
998.084342411
 10
441.214676552
 20
998.109763681
 10
441.460011038
 20
998.111144616
 10
441.704299525
 20
998.088471917
 10
441.945189384
 20
998.041963934
 10
442.180360713
 20
997.972068564
 10
442.407548684
 20
997.879458939
 10
442.624565351
 20
997.765026939
 10
442.829320727
 20
997.629874608
 10
443.019842905
 20
997.475303535
 10
443.194297051
 20
997.302802326
 10
443.351003078
 20
997.11403226
 10
443.488451821
 20
996.910811297
 10
443.605319573
 20
996.695096566
 10
443.700480833
 20
996.468965518
 10
443.773019147
 20
996.234595917
 10
443.822235932
 20
995.994244873
 10
443.847657202
 20
995.750227095
 10
447.131140209
 20
935.800688434
 10
447.130939483
 20
935.767160599
 10
447.133001589
 20
935.567030961
 10
447.129503624
 20
935.527325652
 10
447.129324259
 20
935.497365742
 10
444.807816862
 20
900.738396996
 10
444.805073577
 20
900.71545792
 10
444.804153001
 20
900.690472746
 10
444.786860666
 20
900.56316335
 10
444.776758695
 20
900.478691656
 10
430.824354451
 20
819.855532603
 10
430.809559177
 20
819.777447088
 10
429.119977962
 20
811.575305994
 10
427.371687135
 20
785.160054049
 10
428.335143151
 20
778.015598863
 10
428.338638532
 20
777.98856726
 10
430.197924144
 20
762.966288062
 10
434.151665577
 20
746.405153143
 10
442.074907931
 20
725.516853941
 10
462.007754597
 20
691.620467363
 10
478.364328621
 20
675.414459349
 10
495.584887465
 20
661.724498139
 10
509.459720612
 20
652.714955073
 10
530.445817634
 20
644.387780159
 10
545.115350953
 20
639.839634775
 10
575.000547942
 20
634.53040535
 10
580.793437061
 20
635.087481298
 10
580.925115773
 20
635.096643523
 10
594.877417174
 20
635.697880953
 10
615.862807943
 20
638.691015121
 10
662.700459616
 20
655.990863512
 10
669.394366592
 20
660.193428938
 10
700.354671481
 20
685.046029548
 10
724.721333075
 20
717.097908871
 10
745.507430782
 20
752.240932181
 10
747.224561523
 20
757.601595823
 10
747.226069632
 20
757.606288019
 10
750.111800403
 20
766.554411115
 10
750.165286313
 20
766.703845958
 10
759.988291463
 20
791.625111088
 10
760.011097876
 20
791.68098528
 10
770.070429813
 20
815.49986789
 10
770.105393512
 20
815.578823213
 10
782.391150018
 20
842.07685169
 10
782.613542022
 20
842.462337914
 10
793.974077822
 20
858.634117944
 10
799.030325492
 20
875.873826642
 10
804.648845955
 20
898.154904532
 10
809.039688935
 20
918.259256197
 10
810.292705724
 20
929.605665911
 10
810.489549203
 20
930.338637617
 10
820.549811063
 20
953.188262064
 10
825.524581419
 20
971.472103216
 10
827.500264043
 20
989.882712792
 10
828.830977265
 20
1002.62833359
 10
828.868395887
 20
1002.87080166
 10
828.929400355
 20
1003.10843451
 10
829.013403162
 20
1003.33894361
 10
829.119595315
 20
1003.56010903
 10
829.246954127
 20
1003.76980083
 10
829.394253061
 20
1003.96599955
 10
829.560073548
 20
1004.14681571
 10
829.742818647
 20
1004.31050794
 10
829.940728423
 20
1004.45549979
 10
830.151896896
 20
1004.58039492
 10
830.374290398
 20
1004.68399051
 10
830.605767158
 20
1004.76528889
 10
830.844097929
 20
1004.8235071
 10
831.086987455
 20
1004.85808447
 10
831.332096576
 20
1004.86868801
 10
831.577064759
 20
1004.8552156
 10
831.819532826
 20
1004.81779698
 10
832.057165676
 20
1004.75679251
 10
832.287674776
 20
1004.6727897
 10
832.508840196
 20
1004.56659755
 10
832.718531993
 20
1004.43923874
 10
832.91473072
 20
1004.2919398
 10
833.095546877
 20
1004.12611932
 10
833.259239104
 20
1003.94337422
 10
833.404230957
 20
1003.74546444
 10
833.529126084
 20
1003.53429597
 10
833.632721677
 20
1003.31190247
 10
833.714020053
 20
1003.08042571
 10
833.772238266
 20
1002.84209493
 10
833.806815642
 20
1002.59920541
 10
833.817419181
 20
1002.35409629
 10
833.803946766
 20
1002.1091281
 10
832.472860438
 20
989.359933675
 10
832.472103954
 20
989.352787503
 10
830.474819956
 20
970.740883218
 10
830.401393727
 20
970.351279425
 10
825.325397227
 20
951.695400449
 10
825.201145463
 20
951.344367459
 10
815.220352007
 20
928.675237638
 10
813.995051097
 20
917.579802791
 10
813.952584379
 20
917.320784332
 10
809.52516714
 20
897.048970115
 10
809.506856132
 20
896.971123994
 10
804.484587461
 20
877.054571198
 10
818.728824892
 20
873.62129131
 10
818.731510509
 20
873.620502724
 10
818.734259316
 20
873.619975022
 10
835.949873128
 20
869.429742212
 10
836.521252076
 20
874.488644851
 10
836.185290546
 20
893.906156457
 10
835.507382875
 20
907.166915952
 10
835.506137123
 20
907.394896649
 10
835.977821208
 20
919.137097858
 10
836.210527498
 20
920.094350401
 10
840.144837114
 20
928.521296467
 10
840.517334448
 20
929.096910563
 10
847.199142946
 20
936.840679022
 10
849.982012959
 20
950.641615695
 10
852.40518882
 20
965.573414785
 10
852.602627615
 20
980.266955717
 10
852.647843455
 20
990.642223061
 10
852.648542142
 20
990.691424794
 10
852.911515327
 20
1001.62784273
 10
852.833239947
 20
1002.57904296
 10
852.825140645
 20
1002.82424761
 10
852.841114601
 20
1003.06906539
 10
852.881007978
 20
1003.3111386
 10
852.94443658
 20
1003.54813591
 10
853.030789556
 20
1003.77777494
 10
853.139235278
 20
1003.99784411
 10
853.268729356
 20
1004.20622405
 10
853.418024691
 20
1004.40090795
 10
853.585683487
 20
1004.58002089
 10
853.770091097
 20
1004.74183791
 10
853.969471577
 20
1004.88480064
 10
854.181904783
 20
1005.00753226
 10
854.405344867
 20
1005.10885079
 10
854.637639979
 20
1005.18778049
 10
854.87655299
 20
1005.24356122
 10
855.119783037
 20
1005.27565578
 10
855.364987682
 20
1005.28375508
 10
855.60980547
 20
1005.26778113
 10
855.851878672
 20
1005.22788775
 10
856.08887599
 20
1005.16445915
 10
856.318515012
 20
1005.07810617
 10
856.538584187
 20
1004.96966045
 10
856.746964129
 20
1004.84016637
 10
856.941648026
 20
1004.69087104
 10
857.120760965
 20
1004.52321224
 10
857.28257799
 20
1004.33880463
 10
857.425540716
 20
1004.13942415
 10
857.548272332
 20
1003.92699095
 10
857.649590867
 20
1003.70355086
 10
857.728520567
 20
1003.47125575
 10
857.784301297
 20
1003.23234274
 10
857.816395857
 20
1002.98911269
 10
857.905563401
 20
1001.90555118
 10
857.913263019
 20
1001.64041958
 10
857.647688748
 20
990.595828758
 10
857.60253068
 20
980.233817883
 10
857.602328756
 20
980.211123128
 10
857.40225669
 20
965.321612207
 10
857.370198948
 20
964.954733723
 10
854.909817304
 20
949.793669687
 10
854.892774756
 20
949.699975285
 10
851.970899532
 20
935.209677589
 10
851.413007264
 20
934.070629546
 10
844.528988753
 20
926.092513227
 10
840.953626308
 20
918.434400513
 10
840.506688062
 20
907.30822734
 10
841.180925619
 20
894.119260058
 10
841.183811854
 20
894.034871899
 10
841.523313946
 20
874.412727038
 10
841.507893234
 20
874.088899407
 10
840.849681201
 20
868.261189779
 10
859.718250189
 20
863.879120291
 10
867.777923509
 20
906.627674249
 10
873.597734011
 20
951.581330653
 10
875.184169256
 20
990.669987719
 10
875.192637824
 20
990.814263525
 10
876.169045347
 20
1003.52012066
 10
876.218290555
 20
1003.90956084
 10
876.305470447
 20
1004.29229889
 10
876.429745433
 20
1004.66464883
 10
876.589918677
 20
1005.02302472
 10
876.784447622
 20
1005.3639752
 10
877.01145885
 20
1005.68421675
 10
877.268766117
 20
1005.98066526
 10
877.553891414
 20
1006.25046576
 10
877.864088829
 20
1006.49101993
 10
878.196370991
 20
1006.70001111
 10
878.54753784
 20
1006.87542659
 10
878.914207449
 20
1007.01557702
 10
879.292848588
 20
1007.11911269
 10
879.679814737
 20
1007.18503648
 10
880.071379199
 20
1007.21271352
 10
880.463770996
 20
1007.20187725
 10
880.853211178
 20
1007.15263204
 10
881.235949226
 20
1007.06545215
 10
881.608299161
 20
1006.94117717
 10
881.966675051
 20
1006.78100392
 10
882.30762554
 20
1006.58647498
 10
882.627867088
 20
1006.35946375
 10
882.924315594
 20
1006.10215648
 10
883.194116097
 20
1005.81703118
 10
883.43467027
 20
1005.50683377
 10
883.643661446
 20
1005.17455161
 10
883.819076925
 20
1004.82338476
 10
883.95922736
 20
1004.45671515
 10
884.062763026
 20
1004.07807401
 10
884.128686818
 20
1003.69110786
 10
884.156363853
 20
1003.2995434
 10
884.145527587
 20
1002.9071516
 10
883.174657769
 20
990.273355864
 10
881.583996719
 20
951.080577903
 10
881.554181551
 20
950.729222741
 10
875.696917062
 20
905.486262471
 10
875.66077117
 20
905.258735794
 10
867.085129337
 20
859.773481854
 10
867.005186463
 20
859.432308566
 10
852.78074326
 20
808.820281049
 10
841.118183078
 20
737.40305441
 10
841.069332289
 20
737.153905945
 10
832.515522353
 20
699.841889369
 10
821.201430105
 20
650.501138926
 10
827.981519763
 20
656.457974976
 10
828.35338123
 20
656.747707807
 10
843.134012093
 20
666.923436318
 10
837.006338519
 20
677.334970151
 10
837.421771607
 20
680.398986319
 10
843.661574595
 20
686.441244323
 10
862.945121489
 20
710.603886892
 10
873.35233884
 20
724.148706618
 10
882.038140236
 20
747.48975192
 10
886.800081597
 20
771.493295677
 10
885.897515938
 20
794.017292347
 10
886.114021416
 20
795.139546932
 10
891.479158557
 20
807.114722403
 10
888.422686811
 20
824.999113233
 10
888.408316178
 20
825.746348518
 10
893.008342065
 20
860.711895112
 10
895.183122796
 20
862.867272814
 10
916.129007125
 20
865.432147674
 10
906.258571289
 20
903.102467977
 10
906.131098438
 20
904.275017865
 10
907.881763807
 20
948.368362024
 10
907.890476801
 20
948.51749638
 10
911.384426289
 20
993.784796534
 10
910.291849188
 20
1003.34958747
 10
910.26648957
 20
1003.74130884
 10
910.279647475
 20
1004.13362965
 10
910.331196185
 20
1004.52277163
 10
910.420639258
 20
1004.90498712
 10
910.547115307
 20
1005.27659519
 10
910.709406299
 20
1005.63401704
 10
910.905949284
 20
1005.97381051
 10
911.134851445
 20
1006.2927032
 10
911.393908328
 20
1006.58762399
 10
911.680625076
 20
1006.85573265
 10
911.992240448
 20
1007.09444714
 10
912.325753418
 20
1007.30146851
 10
912.677952074
 20
1007.47480302
 10
913.04544455
 20
1007.61278137
 10
913.424691694
 20
1007.71407476
 10
913.812041147
 20
1007.77770767
 10
914.203762523
 20
1007.80306729
 10
914.596083331
 20
1007.78990939
 10
914.985225306
 20
1007.73836068
 10
915.367440799
 20
1007.6489176
 10
915.739048866
 20
1007.52244155
 10
916.096470718
 20
1007.36015056
 10
916.436264187
 20
1007.16360758
 10
916.755156877
 20
1006.93470542
 10
917.050077675
 20
1006.67564853
 10
917.318186335
 20
1006.38893179
 10
917.556900822
 20
1006.07731641
 10
917.763922186
 20
1005.74380344
 10
917.937256698
 20
1005.39160479
 10
918.075235052
 20
1005.02411231
 10
918.176528441
 20
1004.64486517
 10
918.240161354
 20
1004.25751571
 10
919.376171214
 20
994.312499672
 10
919.390153105
 20
993.550711741
 10
915.872501925
 20
947.976334579
 10
914.148454821
 20
904.553414537
 10
924.094308508
 20
866.595262474
 10
943.215971904
 20
869.91094273
 10
940.314180847
 20
880.938498243
 10
940.268961235
 20
881.145690073
 10
938.010965295
 20
894.108960505
 10
935.115918464
 20
905.704951173
 10
935.058345772
 20
906.0205144
 10
932.939253656
 20
924.165352242
 10
930.467907627
 20
936.661310003
 10
930.420778328
 20
937.103121406
 10
930.221955094
 20
948.601267401
 10
930.237541232
 20
948.92652641
 10
931.624265568
 20
961.14013836
 10
931.700108955
 20
961.529360942
 10
936.820081115
 20
979.897691473
 10
936.844022592
 20
979.978314835
 10
941.210327053
 20
993.824084022
 10
940.522616846
 20
1004.13432619
 10
940.518319814
 20
1004.37962693
 10
940.53808715
 20
1004.62416766
 10
940.581728485
 20
1004.86559332
 10
940.648823527
 20
1005.10157886
 10
940.738726116
 20
1005.32985159
 10
940.85057044
 20
1005.54821313
 10
940.983279377
 20
1005.75456055
 10
941.135574867
 20
1005.94690659
 10
941.305990222
 20
1006.12339886
 10
941.492884249
 20
1006.28233766
 10
941.694457055
 20
1006.4221923
 10
941.908767386
 20
1006.54161591
 10
942.133751314
 20
1006.63945838
 10
942.367242122
 20
1006.71477742
 10
942.606991166
 20
1006.76684769
 10
942.850689531
 20
1006.79516771
 10
943.095990269
 20
1006.79946474
 10
943.340531
 20
1006.7796974
 10
943.581956663
 20
1006.73605607
 10
943.817942196
 20
1006.66896102
 10
944.04621493
 20
1006.57905844
 10
944.264576474
 20
1006.46721411
 10
944.470923886
 20
1006.33450518
 10
944.663269929
 20
1006.18220969
 10
944.839762205
 20
1006.01179433
 10
944.998700996
 20
1005.8249003
 10
945.138555636
 20
1005.6233275
 10
945.257979247
 20
1005.40901717
 10
945.355821715
 20
1005.18403324
 10
945.431140764
 20
1004.95054243
 10
945.483211029
 20
1004.71079339
 10
945.511531047
 20
1004.46709502
 10
946.230557964
 20
993.687348608
 10
946.120356188
 20
992.769082191
 10
941.625182143
 20
978.514661128
 10
936.569907376
 20
960.378437931
 10
935.224028695
 20
948.524575182
 10
935.41617478
 20
937.412575365
 10
937.863414367
 20
925.038507893
 10
937.894040604
 20
924.843471553
 10
940.005949242
 20
906.760142625
 10
942.88393793
 20
895.232477642
 10
942.921303953
 20
895.055917378
 10
945.176582477
 20
882.108247773
 10
948.743908249
 20
868.551488448
 10
950.004606603
 20
863.796384709
 10
950.084069628
 20
863.297508442
 10
951.377514134
 20
840.530556991
 10
951.378659062
 20
840.508717825
 10
952.082834958
 20
825.850779305
 10
955.098631981
 20
812.839357453
 10
961.100191352
 20
804.309266768
 10
961.450273844
 20
803.588556706
 10
964.339541244
 20
793.950030035
 10
964.433330871
 20
793.471574258
 10
965.539717987
 20
781.970522461
 10
965.464128093
 20
781.077060854
 10
961.40997306
 20
766.120920242
 10
960.341539339
 20
764.667301454
 10
954.445646181
 20
760.906328693
 10
954.316187634
 20
760.372074925
 10
948.624535196
 20
736.578820709
 10
947.876403286
 20
735.034111288
 10
936.544396942
 20
720.6494538
 10
935.58533075
 20
719.772996438
 10
908.977196754
 20
702.442787633
 10
879.169228799
 20
682.03967253
 10
862.776272799
 20
670.742606923
 10
890.526933751
 20
675.508831584
 10
902.58595988
 20
678.905097844
 10
913.149269354
 20
683.846317679
 10
932.302553122
 20
695.15383668
 10
945.284192643
 20
704.83543308
 10
958.384602017
 20
715.528630749
 10
965.890614871
 20
723.26576155
 10
970.04833205
 20
728.546921128
 10
973.90716056
 20
734.946043643
 10
978.719743254
 20
746.466236597
 10
980.736511593
 20
754.322953858
 10
982.037650537
 20
761.717196236
 10
982.347202425
 20
771.828367421
 10
981.953093742
 20
786.184275546
 10
980.806156868
 20
799.96485562
 10
978.466872161
 20
821.614903228
 10
974.616016549
 20
851.259156284
 10
968.767908412
 20
892.174104537
 10
968.76503071
 20
892.194858226
 10
966.48612173
 20
909.15213959
 10
964.207025258
 20
926.118870767
 10
964.196162993
 20
926.213310784
 10
961.774399621
 20
951.494753776
 10
959.156902395
 20
975.991795459
 10
959.155457291
 20
976.005687336
 10
956.629593736
 20
1000.96424357
 10
956.626910725
 20
1000.99233692
 10
956.325336228
 20
1004.35022764
 10
956.315406908
 20
1004.595365
 10
956.329553062
 20
1004.8402952
 10
956.367638457
 20
1005.08265942
 10
956.429296308
 20
1005.32012358
 10
956.513932818
 20
1005.55040076
 10
956.62073289
 20
1005.77127326
 10
956.748667982
 20
1005.98061396
 10
956.896506008
 20
1006.17640679
 10
957.062823207
 20
1006.35676617
 10
957.246017854
 20
1006.51995514
 10
957.444325685
 20
1006.66440209
 10
957.655836886
 20
1006.78871592
 10
957.878514488
 20
1006.89169942
 10
958.110213986
 20
1006.97236081
 10
958.348703986
 20
1007.02992327
 10
958.591687699
 20
1007.06383244
 10
958.836825059
 20
1007.07376176
 10
959.081755259
 20
1007.0596156
 10
959.324119487
 20
1007.02153021
 10
959.561583644
 20
1006.95987236
 10
959.79186082
 20
1006.87523585
 10
960.01273332
 20
1006.76843577
 10
960.222074021
 20
1006.64050068
 10
960.417866857
 20
1006.49266266
 10
960.598226237
 20
1006.32634546
 10
960.7614152
 20
1006.14315081
 10
960.905862149
 20
1005.94484298
 10
961.03017598
 20
1005.73333178
 10
961.133159482
 20
1005.51065418
 10
961.213820869
 20
1005.27895468
 10
961.271383328
 20
1005.04046468
 10
961.305292499
 20
1004.79748097
 10
961.605604774
 20
1001.4536445
 10
964.129344391
 20
976.516075319
 10
966.747553227
 20
952.012373701
 10
966.75031138
 20
951.985150899
 10
969.168846142
 20
926.737412246
 10
971.441582255
 20
909.818030714
 10
973.719085435
 20
892.871209865
 10
979.567973916
 20
851.950802115
 10
979.57229658
 20
851.919113843
 10
983.428681849
 20
822.23229296
 10
983.435044926
 20
822.178804673
 10
985.780525864
 20
800.471411027
 10
985.786378778
 20
800.41020381
 10
986.941630771
 20
786.52971662
 10
986.94930324
 20
786.390968269
 10
987.347311245
 20
771.893022382
 10
987.347082015
 20
771.747915179
 10
987.029807608
 20
761.384496449
 10
986.993149386
 20
761.027738093
 10
985.644146406
 20
753.361489192
 10
985.603469949
 20
753.173166866
 10
983.517761318
 20
745.047879152
 10
983.40306928
 20
744.705789916
 10
978.449844252
 20
732.848932239
 10
978.283911988
 20
732.521605913
 10
974.249738746
 20
725.831707994
 10
974.073175481
 20
725.576258584
 10
969.739280163
 20
720.071316381
 10
969.569336931
 20
719.876999464
 10
961.872262009
 20
711.942923595
 10
961.658749509
 20
711.746960983
 10
948.403504599
 20
700.927378943
 10
948.317250112
 20
700.860064342
 10
935.18393174
 20
691.065347145
 10
934.960297512
 20
690.916563479
 10
915.588023324
 20
679.479759163
 10
915.376329313
 20
679.368086093
 10
904.519521001
 20
674.289575735
 10
904.137979062
 20
674.147688948
 10
892.13098755
 20
670.766077554
 10
886.332972437
 20
666.940845949
 10
876.804099053
 20
655.913184315
 10
868.708606999
 20
645.962728388
 10
865.844112368
 20
640.600149171
 10
864.354093677
 20
636.585186919
 10
864.234951706
 20
636.314445449
 10
860.343976136
 20
628.725138951
 10
865.031430661
 20
634.105994183
 10
865.303485187
 20
634.388969591
 10
865.601966136
 20
634.643916388
 10
865.923998974
 20
634.868379297
 10
866.266482349
 20
635.060196618
 10
866.626117958
 20
635.217521046
 10
866.999442313
 20
635.338837459
 10
867.382860097
 20
635.422977515
 10
867.772678788
 20
635.469130899
 10
868.165144218
 20
635.476853129
 10
868.55647673
 20
635.446069834
 10
868.942907579
 20
635.377077476
 10
869.320715224
 20
635.270540488
 10
869.686261172
 20
635.12748488
 10
870.036025013
 20
634.949288355
 10
870.366638333
 20
634.737667044
 10
870.674917143
 20
634.494658975
 10
870.957892551
 20
634.222604449
 10
871.212839348
 20
633.924123499
 10
871.437302257
 20
633.602090661
 10
871.629119579
 20
633.259607287
 10
871.786444006
 20
632.899971678
 10
871.90776042
 20
632.526647323
 10
871.991900476
 20
632.143229538
 10
872.038053859
 20
631.753410848
 10
872.045776089
 20
631.360945418
 10
872.014992794
 20
630.969612905
 10
871.946000436
 20
630.583182056
 10
871.839463448
 20
630.205374411
 10
871.69640784
 20
629.839828464
 10
871.518211316
 20
629.490064622
 10
871.306590004
 20
629.159451303
 10
871.063581935
 20
628.851172492
 10
862.058586575
 20
618.514095911
 10
862.012774482
 20
618.462414657
 10
839.551724747
 20
593.56023335
 10
834.230676558
 20
581.27957364
 10
831.560064758
 20
573.428042557
 10
831.119956495
 20
570.639746258
 10
831.031748686
 20
570.268083414
 10
819.765549321
 20
535.035784858
 10
812.159963067
 20
507.807818808
 10
811.699864492
 20
506.91312328
 10
801.676845003
 20
494.457015856
 10
785.991777457
 20
474.979165669
 10
774.615381411
 20
453.66754445
 10
774.327556891
 20
453.240861671
 10
771.250892982
 20
449.562580595
 10
744.501895793
 20
417.500789072
 10
735.982748941
 20
394.201650121
 10
744.488209465
 20
387.093578038
 10
744.567587401
 20
387.020334709
 10
744.647820014
 20
386.948028625
 10
744.657718443
 20
386.937169311
 10
744.668517334
 20
386.927204997
 10
744.740333941
 20
386.846533956
 10
744.813092977
 20
386.766711874
 10
744.821879344
 20
386.754934635
 10
744.831649561
 20
386.743959825
 10
744.895213208
 20
386.656637979
 10
744.959797957
 20
386.57006863
 10
744.967387643
 20
386.557486887
 10
744.976035095
 20
386.545607275
 10
745.030733627
 20
386.45247558
 10
745.086522103
 20
386.359992674
 10
745.092842017
 20
386.346727596
 10
745.100283423
 20
386.334057589
 10
745.145590065
 20
386.236012955
 10
745.192044994
 20
386.138507152
 10
745.19703427
 20
386.12468649
 10
745.203197966
 20
386.111348107
 10
745.238676389
 20
386.009334757
 10
745.275350385
 20
385.907745092
 10
745.278960975
 20
385.893501945
 10
745.283787601
 20
385.879623643
 10
745.309096129
 20
385.774624022
 10
745.335636001
 20
385.669928858
 10
746.506454292
 20
379.869663229
 10
746.343598254
 20
378.366858294
 10
736.84298826
 20
356.807687304
 10
735.403906262
 20
355.464272797
 10
721.465487132
 20
350.434144395
 10
709.606082158
 20
328.683414293
 10
705.637409711
 20
321.393884862
 10
708.481591534
 20
307.435219551
 10
708.491534752
 20
307.383658041
 10
712.953312103
 20
282.864413774
 10
723.846762668
 20
277.166488925
 10
725.125489338
 20
274.395454584
 10
723.373929572
 20
266.7136821
 10
708.577723954
 20
201.623359099
 10
705.247742723
 20
186.986018057
 10
705.046879325
 20
186.424125757
 10
698.142444731
 20
172.591075822
 10
689.098634601
 20
135.071325604
 10
689.093303495
 20
135.049634458
 10
675.08326319
 20
79.1248540535
 10
686.0525692
 20
55.7116721978
 10
701.973137734
 20
36.1272280293
 10
719.36330643
 20
26.3056558694
 10
724.569089066
 20
23.8964939846
 10
754.668206187
 20
87.9510951327
 10
891.923679482
 20
380.144567039
 10
892.038760196
 20
380.361240401
 10
892.174524469
 20
380.565590539
 10
892.329664815
 20
380.75564945
 10
892.50268715
 20
380.929586762
 10
892.691925172
 20
381.085727363
 10
892.895556417
 20
381.222567536
 10
893.111619804
 20
381.338789433
 10
893.338034525
 20
381.433273774
 10
893.572620082
 20
381.505110625
 10
893.813117288
 20
381.553608155
 10
894.057210023
 20
381.578299309
 10
894.302547542
 20
381.578946296
 10
894.546767109
 20
381.555542885
 10
894.787516757
 20
381.508314465
 10
895.022477934
 20
381.43771587
 10
895.249387837
 20
381.344427005
 10
895.466061199
 20
381.22934629
 10
895.670411338
 20
381.093582018
 10
895.860470248
 20
380.938441671
 10
896.03440756
 20
380.765419337
 10
896.190548162
 20
380.576181315
 10
896.327388334
 20
380.37255007
 10
896.443610231
 20
380.156486683
 10
896.538094573
 20
379.930071962
 10
896.609931423
 20
379.695486405
 10
896.658428954
 20
379.454989199
 10
896.683120107
 20
379.210896464
 10
896.683767094
 20
378.965558945
 10
896.660363683
 20
378.721339378
 10
896.613135263
 20
378.48058973
 10
896.542536669
 20
378.245628552
 10
896.449247803
 20
378.018718649
 10
759.193706563
 20
85.8251021003
 10
728.037364972
 20
19.5205979773
 10
724.724738957
 20
18.3149908948
 10
717.17177453
 20
21.8103950037
 10
717.082457269
 20
21.8571813294
 10
716.9923353
 20
21.9023981866
 10
699.102303039
 20
32.0062819308
 10
698.391832978
 20
32.6061280827
 10
681.97910078
 20
52.7959998637
 10
681.655131591
 20
53.3123321631
 10
673.112420764
 20
71.5461239775
 10
671.146825176
 20
64.0235666073
 10
664.550433094
 20
37.7872583757
 10
665.259766556
 20
34.4695702347
 10
665.457193024
 20
34.3565256264
 10
666.028423371
 20
33.9597687571
 10
672.577261471
 20
28.5092977319
 10
684.822110462
 20
18.4061971931
 10
684.965040293
 20
18.2824760372
 10
689.046303379
 20
14.5774316354
 10
689.323647987
 20
14.2996390598
 10
689.572428671
 20
13.9959996061
 10
689.790249537
 20
13.6694374881
 10
689.975012851
 20
13.3230976776
 10
690.124939241
 20
12.9603156163
 10
690.238584834
 20
12.5845850938
 10
690.314855162
 20
12.1995246003
 10
690.353015698
 20
11.8088424789
 10
690.352698937
 20
11.4163012121
 10
690.313907929
 20
11.0256811868
 10
690.237016252
 20
10.6407442874
 10
690.122764416
 20
10.2651976667
 10
689.972252727
 20
9.90265804381
 10
689.786930697
 20
9.55661687362
 10
689.568583077
 20
9.23040672173
 10
689.319312673
 20
8.92716917023
 10
689.041520098
 20
8.64982456249
 10
688.737880644
 20
8.40104387871
 10
688.411318526
 20
8.18322301287
 10
688.064978716
 20
7.99845969898
 10
687.702196654
 20
7.84853330876
 10
687.326466132
 20
7.73488771529
 10
686.941405638
 20
7.65861738777
 10
686.550723517
 20
7.62045685115
 10
686.15818225
 20
7.62077361226
 10
685.767562225
 20
7.65956462051
 10
685.382625325
 20
7.73645629728
 10
685.007078705
 20
7.85070813371
 10
684.644539082
 20
8.00121982214
 10
684.298497912
 20
8.18654185274
 10
683.97228776
 20
8.40488947305
 10
683.669050208
 20
8.65415987612
 10
679.657789869
 20
12.2956545185
 10
670.944199786
 20
19.4851491982
 10
669.109657028
 20
16.6486360649
 10
666.243895419
 20
12.2053470189
 10
665.982635298
 20
10.5651599684
 10
665.901940162
 20
10.1810023946
 10
665.783979568
 20
9.80660415106
 10
665.629889542
 20
9.44557089743
 10
665.441154054
 20
9.10137958134
 10
665.219590731
 20
8.77734495333
 10
664.967333347
 20
8.47658764399
 10
664.686811281
 20
8.20200411063
 10
664.380726112
 20
7.95623874278
 10
664.052025609
 20
7.74165839527
 10
663.703875336
 20
7.56032959416
 10
663.339628172
 20
7.41399863492
 10
662.962792015
 20
7.30407476468
 10
662.576996003
 20
7.23161661041
 10
662.185955564
 20
7.19732198374
 10
661.79343663
 20
7.20152116067
 10
661.403219374
 20
7.24417370084
 10
661.0190618
 20
7.32486883696
 10
660.644663556
 20
7.44282943076
 10
660.283630303
 20
7.59691945724
 10
659.939438987
 20
7.78565494521
 10
659.615404359
 20
8.00721826875
 10
659.314647049
 20
8.25947565194
 10
659.040063516
 20
8.53999771827
 10
658.794298148
 20
8.84608288689
 10
658.579717801
 20
9.17478339032
 10
658.512899512
 20
9.30307412608
 10
658.430798109
 20
9.22363414457
 10
658.238610852
 20
9.07113832567
 10
658.032401825
 20
8.93821446118
 10
657.814156933
 20
8.82614268057
 10
657.585977995
 20
8.73600229636
 10
657.350062499
 20
8.66866140972
 10
657.108682438
 20
8.6247685502
 10
656.864162437
 20
8.60474643003
 10
656.618857354
 20
8.60878787318
 10
656.375129614
 20
8.63685395834
 10
656.135326447
 20
8.68867439376
 10
655.901757288
 20
8.76375012033
 10
655.676671537
 20
8.86135811775
 10
655.462236892
 20
8.98055836766
 10
655.260518476
 20
9.12020290649
 10
655.073458947
 20
9.27894688098
 10
654.902859792
 20
9.45526149989
 10
654.750363973
 20
9.64744875706
 10
654.617440109
 20
9.85365778413
 10
654.505368328
 20
10.0719026755
 10
654.415227944
 20
10.3000816134
 10
654.347887057
 20
10.5359971101
 10
654.303994198
 20
10.7773771704
 10
654.283972077
 20
11.0218971722
 10
654.288013521
 20
11.2672022544
 10
654.316079606
 20
11.5109299948
 10
656.241927315
 20
23.1675509681
 10
656.551516797
 20
24.0239466316
 10
659.277611622
 20
28.6762720012
 10
658.914708005
 20
28.8840673262
 10
642.020047967
 20
37.7364093464
 10
630.296389796
 20
19.1884461555
 10
630.743284453
 20
17.6093757026
 10
629.257257423
 20
9.80973840122
 10
629.16495771
 20
9.42820267637
 10
629.035705403
 20
9.05755110432
 10
628.870745275
 20
8.70135326231
 10
628.671665982
 20
8.36303953029
 10
628.440384765
 20
8.04586805444
 10
628.179128989
 20
7.75289336945
 10
627.89041469
 20
7.4869369817
 10
627.577022345
 20
7.25056019658
 10
627.241970093
 20
7.04603945176
 10
626.888484671
 20
6.8753443938
 10
626.519970336
 20
6.74011890943
 10
626.139976083
 20
6.64166529399
 10
625.752161465
 20
6.58093170961
 10
625.360261348
 20
6.55850305391
 10
624.968049944
 20
6.5745953271
 10
624.579304464
 20
6.62905355179
 10
624.197768739
 20
6.72135326553
 10
623.827117167
 20
6.85060557159
 10
623.470919325
 20
7.01556569962
 10
623.132605593
 20
7.21464499342
 10
622.815434117
 20
7.44592621054
 10
622.522459432
 20
7.70718198645
 10
622.256503045
 20
7.9958962852
 10
622.020126259
 20
8.30928863027
 10
621.815605515
 20
8.64434088206
 10
621.644910457
 20
8.99782630421
 10
621.509684972
 20
9.3663406389
 10
621.411231357
 20
9.74633489161
 10
621.350497772
 20
10.13414951
 10
621.328069117
 20
10.5260496272
 10
621.34416139
 20
10.918261031
 10
621.398619615
 20
11.307006511
 10
622.509936543
 20
17.1399212525
 10
621.869999184
 20
17.8409577665
 10
616.925523061
 20
18.601474182
 10
616.649979666
 20
18.4357615876
 10
614.476332232
 20
11.6794979117
 10
613.954851223
 20
9.4012121586
 10
613.84859672
 20
9.02332497037
 10
613.705814439
 20
8.65767217479
 10
613.527879453
 20
8.30777520818
 10
613.316505373
 20
7.97700376958
 10
613.073727846
 20
7.66854336879
 10
612.801884952
 20
7.38536464807
 10
612.503594689
 20
7.1301947733
 10
612.181729752
 20
6.90549116988
 10
611.839389879
 20
6.71341785634
 10
611.479871989
 20
6.55582460368
 10
611.106638436
 20
6.43422912108
 10
610.723283663
 20
6.34980243951
 10
610.333499587
 20
6.30335763406
 10
609.94104004
 20
6.2953419936
 10
609.549684623
 20
6.32583271312
 10
609.163202302
 20
6.39453615034
 10
608.785315114
 20
6.50079065359
 10
608.419662318
 20
6.64357293392
 10
608.069765351
 20
6.82150791992
 10
607.738993913
 20
7.03288200041
 10
607.430533512
 20
7.27565952743
 10
607.147354791
 20
7.5475024207
 10
606.892184917
 20
7.84579268454
 10
606.667481313
 20
8.16765762066
 10
606.475408
 20
8.50999749376
 10
606.317814747
 20
8.86951538373
 10
606.196219264
 20
9.24274893675
 10
606.111792583
 20
9.62610370968
 10
606.065347777
 20
10.0158877865
 10
606.057332137
 20
10.4083473334
 10
606.087822856
 20
10.7997027506
 10
606.156526294
 20
11.1861850713
 10
606.716519543
 20
13.6327260151
 10
606.807894845
 20
13.9652934039
 10
609.49417729
 20
22.3149605251
 10
611.240446568
 20
24.5177549861
 10
614.042235866
 20
26.2027591729
 10
616.711847969
 20
26.7284183503
 10
624.480941714
 20
25.5334437607
 10
626.827082089
 20
24.2766932133
 10
627.282283618
 20
23.7780305105
 10
637.160035798
 20
39.405591564
 10
628.77552597
 20
41.5906080562
 10
617.507341956
 20
42.9976652969
 10
591.618796116
 20
41.3667680732
 10
584.824728356
 20
38.7477353394
 10
584.455461871
 20
38.5862572992
 10
587.355774516
 20
30.3453004596
 10
587.396891863
 20
30.2071677057
 10
587.441600619
 20
30.0701552204
 10
592.650182362
 20
10.9779078973
 10
592.734790015
 20
10.5945930246
 10
592.781418831
 20
10.2048309177
 10
592.789619749
 20
9.81237519866
 10
592.759313791
 20
9.42100543057
 10
592.690792819
 20
9.03449071826
 10
592.584716727
 20
8.6565534097
 10
592.442107086
 20
8.29083324777
 10
592.264337305
 20
7.94085231755
 10
592.053119404
 20
7.60998112674
 10
591.810487528
 20
7.30140614575
 10
591.538778352
 20
7.01809912035
 10
591.240608587
 20
6.76278845205
 10
590.918849768
 20
6.53793292218
 10
590.576600611
 20
6.34569801238
 10
590.21715716
 20
6.18793504994
 10
589.843981054
 20
6.06616337841
 10
589.460666181
 20
5.98155572558
 10
589.070904074
 20
5.93492690938
 10
588.678448355
 20
5.9267259908
 10
588.287078587
 20
5.95703194917
 10
587.900563875
 20
6.02555292156
 10
587.522626566
 20
6.13162901352
 10
587.156906404
 20
6.27423865432
 10
586.806925474
 20
6.45200843516
 10
586.476054283
 20
6.66322633585
 10
586.167479302
 20
6.90585821257
 10
585.884172277
 20
7.1775673877
 10
585.628861608
 20
7.47573715334
 10
585.404006079
 20
7.79749597167
 10
585.211771169
 20
8.13974512937
 10
585.054008206
 20
8.49918857996
 10
584.932236535
 20
8.87236468652
 10
579.761608218
 20
27.8254923333
 10
577.105623026
 20
35.372216435
 10
573.270901203
 20
33.6953153627
 10
569.135666012
 20
31.4222018407
 10
572.670945101
 20
21.1535345176
 10
576.559049463
 20
11.0899939781
 10
576.682381344
 20
10.7173305996
 10
576.768591949
 20
10.3343730589
 10
576.816851024
 20
9.94480944634
 10
576.826693807
 20
9.55239147259
 10
576.798025506
 20
9.16089833723
 10
576.731122214
 20
8.77410033315
 10
576.626628245
 20
8.39572253659
 10
576.485549933
 20
8.02940893256
 10
576.30924594
 20
7.67868732132
 10
576.09941417
 20
7.34693534371
 10
575.858075417
 20
7.03734795262
 10
575.587553905
 20
6.75290664387
 10
575.290454905
 20
6.49635074277
 10
574.969639641
 20
6.27015102287
 10
574.628197741
 20
6.07648591114
 10
574.269417477
 20
5.91722050847
 10
573.896754099
 20
5.79388862775
 10
573.513796558
 20
5.70767802242
 10
573.124232945
 20
5.65941894772
 10
572.731814972
 20
5.64957616494
 10
572.340321836
 20
5.67824446545
 10
571.953523832
 20
5.74514775784
 10
571.575146036
 20
5.84964172684
 10
571.208832431
 20
5.99072003839
 10
570.85811082
 20
6.16702403125
 10
570.526358843
 20
6.37685580158
 10
570.216771452
 20
6.61819455473
 10
569.932330143
 20
6.88871606657
 10
569.675774242
 20
7.18581506707
 10
569.449574522
 20
7.50663033043
 10
569.25590941
 20
7.8480722303
 10
569.096644007
 20
8.20685249453
 10
565.181780743
 20
18.3396528259
 10
565.158445636
 20
18.4101628996
 10
565.130851732
 20
18.4791177704
 10
562.021221137
 20
27.5114349563
 10
560.227881194
 20
26.5256469454
 10
557.757910743
 20
24.1234489228
 10
562.223442372
 20
14.565836369
 10
564.166078399
 20
11.6679777925
 10
564.36839423
 20
11.3315895481
 10
564.536764042
 20
10.9769906858
 10
564.66956634
 20
10.6075961865
 10
564.765522166
 20
10.2269635212
 10
564.823707414
 20
9.83875839053
 10
564.843561726
 20
9.44671942212
 10
564.824893897
 20
9.05462216553
 10
564.767883706
 20
8.6662427317
 10
564.673080193
 20
8.28532142687
 10
564.541396368
 20
7.91552673145
 10
564.374100418
 20
7.5604199705
 10
564.172803495
 20
7.22342101626
 10
563.939444198
 20
6.90777535287
 10
563.676269904
 20
6.61652282062
 10
563.385815126
 20
6.35246834061
 10
563.070877102
 20
6.11815490184
 10
562.734488857
 20
5.9158390708
 10
562.379889995
 20
5.74746925955
 10
562.010495496
 20
5.61466696141
 10
561.629862831
 20
5.5187111351
 10
561.2416577
 20
5.4605258877
 10
560.849618732
 20
5.44067157493
 10
560.457521475
 20
5.45933940468
 10
560.069142041
 20
5.51634959556
 10
559.688220736
 20
5.61115310825
 10
559.318426041
 20
5.74283693311
 10
558.96331928
 20
5.91013288291
 10
558.626320326
 20
6.1114298062
 10
558.310674662
 20
6.34478910358
 10
558.01942213
 20
6.60796339744
 10
557.75536765
 20
6.89841817546
 10
557.521054211
 20
7.21335619937
 10
556.450480373
 20
8.81034685265
 10
556.403950581
 20
8.50322252504
 10
556.307392407
 20
8.12274221612
 10
556.174005595
 20
7.75355837998
 10
556.005074733
 20
7.39922645881
 10
555.802226717
 20
7.06315886268
 10
555.567415086
 20
6.74859210627
 10
555.302901203
 20
6.4585556394
 10
555.011232481
 20
6.1958426718
 10
554.69521785
 20
5.96298327295
 10
554.357900704
 20
5.76222000617
 10
554.002529591
 20
5.59548633145
 10
553.632526928
 20
5.46438798524
 10
553.251456045
 20
5.37018751628
 10
552.862986862
 20
5.31379212656
 10
552.470860549
 20
5.29574493454
 10
552.078853497
 20
5.31621974452
 10
551.690740948
 20
5.3750193729
 10
551.31026064
 20
5.47157754712
 10
550.941076803
 20
5.60496435917
 10
550.586744882
 20
5.77389522113
 10
550.250677286
 20
5.97674323646
 10
549.93611053
 20
6.21155486788
 10
549.714797744
 20
6.41339260607
 10
549.70011047
 20
6.39687112233
 10
549.411805179
 20
6.13047141263
 10
549.098776418
 20
5.89361335058
 10
548.764038827
 20
5.68857800879
 10
548.41081611
 20
5.51733998968
 10
548.042509997
 20
5.38154840899
 10
547.662667476
 20
5.28251101387
 10
547.274946638
 20
5.22118158857
 10
546.883081447
 20
5.19815076898
 10
546.490845779
 20
5.2136403545
 10
546.102017078
 20
5.26750117193
 10
545.720339977
 20
5.35921451218
 10
545.349490234
 20
5.48789712562
 10
544.993039336
 20
5.65230972836
 10
544.844498821
 20
5.73941076722
 10
544.62562003
 20
5.6069450828
 10
544.27148734
 20
5.43759696687
 10
543.902460878
 20
5.30377538197
 10
543.52209457
 20
5.20676910312
 10
543.134051551
 20
5.14751235382
 10
542.742068889
 20
5.12657580896
 10
542.34992159
 20
5.1441610989
 10
541.961386247
 20
5.20009886769
 10
541.580204668
 20
5.29385040405
 10
541.210047841
 20
5.42451282942
 10
540.854480577
 20
5.59082779323
 10
540.516927183
 20
5.79119359144
 10
540.200638484
 20
6.0236805919
 10
539.908660513
 20
6.28604981771
 10
539.643805176
 20
6.57577450978
 10
539.551612177
 20
6.69897838331
 10
539.528729766
 20
6.68993346361
 10
539.292828005
 20
6.62254447392
 10
539.0514569
 20
6.57860239662
 10
538.806940986
 20
6.55853041793
 10
538.561635085
 20
6.56252184196
 10
538.317901627
 20
6.59053822914
 10
538.078087898
 20
6.64230976633
 10
537.844503436
 20
6.71733786532
 10
537.619397786
 20
6.81489996452
 10
537.40493884
 20
6.93405648758
 10
537.203191954
 20
7.07365989203
 10
537.016100061
 20
7.23236572078
 10
536.845464958
 20
7.40864554994
 10
536.692929954
 20
7.60080170839
 10
536.559964045
 20
7.80698362729
 10
536.447847765
 20
8.02520566203
 10
536.357660856
 20
8.25336621515
 10
528.749128337
 20
30.6605568384
 10
528.743972469
 20
30.6786054576
 10
528.73733503
 20
30.6961633627
 10
528.73333745
 20
30.7109963822
 10
528.728082073
 20
30.7254317601
 10
524.061031282
 20
45.8095471364
 10
523.981085723
 20
46.15127725
 10
521.338472533
 20
62.572214818
 10
521.220719679
 20
63.3047803918
 10
519.00388581
 20
66.278754529
 10
518.719148762
 20
66.718063673
 10
501.491556382
 20
97.5468714595
 10
498.950730397
 20
99.8802822989
 10
498.652089453
 20
100.207909711
 10
487.690881712
 20
114.615676161
 10
487.68225908
 20
114.627077525
 10
479.917509014
 20
124.955341438
 10
472.568391189
 20
113.074406582
 10
470.999703959
 20
87.8893269311
 10
470.646609339
 20
86.7557357416
 10
459.112122676
 20
67.5877268027
 10
458.929379169
 20
67.3239803875
 10
452.242551399
 20
58.8862675192
 10
448.618856753
 20
58.5735766257
 10
446.665332073
 20
60.3165320101
 10
440.420471034
 20
53.3621266372
 10
442.653403272
 20
51.4455418389
 10
442.83150431
 20
51.2768085077
 10
442.992208984
 20
51.0914307193
 10
443.13396962
 20
50.8911937631
 10
443.255420986
 20
50.6780260303
 10
443.355393439
 20
50.4539804429
 10
443.432924189
 20
50.2212146823
 10
443.487266574
 20
49.98197041
 10
443.517897245
 20
49.7385516791
 10
443.524521214
 20
49.493302745
 10
443.507074687
 20
49.2485854892
 10
443.465725685
 20
49.0067566725
 10
443.40087242
 20
48.7701452386
 10
443.313139465
 20
48.541029885
 10
443.203371737
 20
48.3216171178
 10
443.072626358
 20
48.1140200019
 10
442.922162479
 20
47.920237811
 10
442.753429148
 20
47.7421367735
 10
442.568051359
 20
47.5814320997
 10
442.367814403
 20
47.4396714636
 10
442.15464667
 20
47.3182200976
 10
441.930601083
 20
47.2182476446
 10
441.697835322
 20
47.1407168941
 10
441.45859105
 20
47.0863745096
 10
441.215172319
 20
47.0557438379
 10
440.969923385
 20
47.0491198692
 10
440.725206129
 20
47.0665663959
 10
440.483377312
 20
47.1079153984
 10
440.246765878
 20
47.1727686632
 10
440.017650525
 20
47.260501618
 10
439.798237758
 20
47.3702693463
 10
439.590640642
 20
47.501014725
 10
439.396858451
 20
47.6514786047
 10
436.918050689
 20
49.7791048672
 10
430.113044325
 20
43.4574519074
 10
433.705270336
 20
39.2696488521
 10
433.705569717
 20
39.2647247602
 10
433.777048834
 20
39.1820287361
 10
433.91851814
 20
38.9815858459
 10
434.039659393
 20
38.7682417262
 10
434.139305937
 20
38.5440509975
 10
434.216498122
 20
38.3111727392
 10
434.270492544
 20
38.0718496962
 10
434.300769208
 20
37.8283866801
 10
434.307036534
 20
37.5831283729
 10
434.289234162
 20
37.3384367462
 10
434.24753354
 20
37.0966683142
 10
434.182336268
 20
36.8601514389
 10
434.094270231
 20
36.6311639072
 10
433.984183552
 20
36.4119109942
 10
433.88824979
 20
36.2600777369
 10
433.888487425
 20
36.2561692126
 10
430.350983192
 20
30.9446630251
 10
430.044484026
 20
30.5692133497
 10
416.318608023
 20
16.7419601058
 10
407.597133866
 20
5.2377993818
 10
407.439502939
 20
5.04980095697
 10
407.264203981
 20
4.87815832854
 10
407.072925216
 20
4.72452450886
 10
406.867508763
 20
4.59037907559
 10
406.649932894
 20
4.47701392259
 10
406.422292984
 20
4.38552081825
 10
406.186781331
 20
4.31678089118
 10
405.945666039
 20
4.27145614446
 10
405.701269181
 20
4.24998308017
 10
405.455944432
 20
4.25256849566
 10
405.212054405
 20
4.27918749197
 10
404.971947892
 20
4.32958371362
 10
404.737937251
 20
4.40327181742
 10
404.512276133
 20
4.49954214668
 10
404.297137777
 20
4.61746756548
 10
404.094594083
 20
4.75591238759
 10
403.906595659
 20
4.91354331368
 10
403.73495303
 20
5.08884227176
 10
403.581319211
 20
5.28012103704
 10
403.447173777
 20
5.48553749045
 10
403.333808624
 20
5.70311335924
 10
403.24231552
 20
5.93075326887
 10
403.173575593
 20
6.16626492256
 10
403.128250846
 20
6.40738021435
 10
403.106777782
 20
6.65177707216
 10
403.109363197
 20
6.89710182065
 10
403.135982194
 20
7.1409918484
 10
403.186378415
 20
7.3810983611
 10
403.260066519
 20
7.61510900178
 10
403.356336848
 20
7.84077012006
 10
403.474262267
 20
8.055908476
 10
403.612707089
 20
8.25845216964
 10
412.434800004
 20
19.8953352217
 10
412.652754239
 20
20.1462596494
 10
415.896265189
 20
23.4137266802
 10
404.193199671
 20
18.9590946609
 10
403.671125974
 20
18.8226833145
 10
392.345869163
 20
17.1406476766
 10
383.444072955
 20
15.1342924727
 10
390.12783341
 20
9.49107026711
 10
390.414978321
 20
9.2234202217
 10
390.674506258
 20
8.92891386143
 10
390.903917826
 20
8.61038744352
 10
391.101003666
 20
8.27090855151
 10
391.263865734
 20
7.91374655271
 10
391.390935578
 20
7.54234111241
 10
391.480989448
 20
7.16026906804
 10
391.533160074
 20
6.77120998223
 10
391.546945025
 20
6.37891070667
 10
391.522211545
 20
5.98714929783
 10
391.459197831
 20
5.59969863225
 10
391.358510738
 20
5.22029007162
 10
391.221119939
 20
4.8525775278
 10
391.048348583
 20
4.5001022736
 10
390.841860551
 20
4.16625883839
 10
390.603644437
 20
3.85426231696
 10
390.335994391
 20
3.56711740636
 10
390.041488031
 20
3.30758946904
 10
389.722961613
 20
3.07817790092
 10
389.383482721
 20
2.88109206082
 10
389.026320722
 20
2.71822999309
 10
388.654915282
 20
2.5911601485
 10
388.272843238
 20
2.5011062791
 10
387.883784152
 20
2.44893565288
 10
387.491484876
 20
2.4351507015
 10
387.099723467
 20
2.45988418157
 10
386.712272802
 20
2.52289789616
 10
386.332864241
 20
2.62358498875
 10
385.965151697
 20
2.7609757876
 10
385.612676443
 20
2.93374714421
 10
385.278833008
 20
3.14023517597
 10
384.966836486
 20
3.37845129025
 10
375.630057412
 20
11.2616660401
 10
363.699446539
 20
4.21341795806
 10
363.299355333
 20
3.93562554932
 10
363.091207299
 20
3.80575903211
 10
362.871332409
 20
3.69691993279
 10
362.64184818
 20
3.61015643138
 10
362.40496467
 20
3.54630410784
 10
362.162963197
 20
3.50597789495
 10
361.918174366
 20
3.48956615617
 10
361.672955629
 20
3.49722694553
 10
361.429668577
 20
3.52888648544
 10
361.190656195
 20
3.58423987722
 10
360.958220304
 20
3.66275403745
 10
360.734599389
 20
3.76367283184
 10
360.521947042
 20
3.88602435724
 10
360.322311221
 20
4.02863030158
 10
360.137614527
 20
4.19011729165
 10
359.969635691
 20
4.36893011945
 10
359.819992442
 20
4.56334671973
 10
359.690125925
 20
4.77149475432
 10
359.581286825
 20
4.99136964387
 10
359.494523324
 20
5.220853873
 10
359.430671
 20
5.45773738314
 10
359.390344787
 20
5.69973885659
 10
359.373933049
 20
5.94452768687
 10
359.380825134
 20
6.16514051359
 10
354.235141795
 20
2.54510630793
 10
353.903393637
 20
2.33526849846
 10
353.552675236
 20
2.15895812114
 10
353.1863642
 20
2.01787314127
 10
352.807988306
 20
1.91337228435
 10
352.421191519
 20
1.84646195075
 10
352.029698906
 20
1.81778652355
 10
351.637280753
 20
1.82762216281
 10
351.247716262
 20
1.87587414592
 10
350.864757152
 20
1.96207777993
 10
350.492091529
 20
2.08540287671
 10
350.133308365
 20
2.24466174816
 10
349.79186294
 20
2.4383206443
 10
349.471043559
 20
2.66451452407
 10
349.173939888
 20
2.92106501679
 10
348.903413198
 20
3.20550140094
 10
348.66206881
 20
3.51508439868
 10
348.452231
 20
3.84683255648
 10
348.275920623
 20
4.19755095825
 10
348.134835643
 20
4.56386199405
 10
348.030334786
 20
4.94223788836
 10
347.963424452
 20
5.32903467447
 10
347.934749025
 20
5.72052728789
 10
347.944584664
 20
6.11294544075
 10
347.992836648
 20
6.5025099317
 10
348.079040282
 20
6.88546904176
 10
348.202365378
 20
7.25813466533
 10
348.36162425
 20
7.61691782875
 10
348.555283146
 20
7.95836325402
 10
348.781477026
 20
8.27918263505
 10
349.038027518
 20
8.57628630581
 10
349.322463903
 20
8.84681299554
 10
349.6320469
 20
9.08815738433
 10
369.417035162
 20
23.0070734065
 10
395.019588482
 20
41.9994670493
 10
415.71046872
 20
66.8693017415
 10
415.013201241
 20
67.471287143
 10
397.08189844
 20
44.730758583
 10
396.535208154
 20
44.2186814786
 10
337.282170712
 20
3.47767580738
 10
337.073431862
 20
3.34876107126
 10
336.853062293
 20
3.24092707997
 10
336.623184284
 20
3.15521233378
 10
336.386011687
 20
3.09244231255
 10
336.143828602
 20
3.05322152592
 10
335.898967386
 20
3.03792769148
 10
335.653786185
 20
3.04670809724
 10
335.41064623
 20
3.07947818307
 10
335.171889089
 20
3.13592235515
 10
334.939814126
 20
3.21549702523
 10
334.716656349
 20
3.31743584575
 10
334.504564889
 20
3.44075709013
 10
334.305582304
 20
3.58427310739
 10
334.121624903
 20
3.74660175981
 10
333.954464298
 20
3.92617973375
 10
333.805710337
 20
4.12127759513
 10
333.676795601
 20
4.33001644492
 10
333.568961609
 20
4.55038601386
 10
333.483246863
 20
4.78026402256
 10
333.420476842
 20
5.01743662012
 10
333.381256055
 20
5.25961970478
 10
333.365962221
 20
5.50448092103
 10
333.374742627
 20
5.74966212152
 10
333.407512712
 20
5.99280207725
 10
333.463956884
 20
6.23155921753
 10
333.543531555
 20
6.46363418059
 10
333.645470375
 20
6.68679195767
 10
333.768791619
 20
6.89888341737
 10
333.912307637
 20
7.09786600302
 10
334.074636289
 20
7.28182340352
 10
334.254214263
 20
7.44898400855
 10
334.449312124
 20
7.59773797011
 10
393.390208867
 20
48.1241229809
 10
411.226085664
 20
70.7436320161
 10
405.48783581
 20
75.7064430567
 10
356.207645911
 20
116.362557308
 10
264.282041745
 20
2.6889752082
 10
264.118597836
 20
2.50600798369
 10
263.93800703
 20
2.33994210094
 10
263.742008516
 20
2.19237686517
 10
263.532489865
 20
2.06473341027
 10
263.311468857
 20
1.95824101249
 10
263.081074046
 20
1.87392525183
 10
262.843524259
 20
1.81259813516
 10
262.60110723
 20
1.77485027614
 10
262.356157569
 20
1.76104520728
 10
262.111034273
 20
1.77131587895
 10
261.868098016
 20
1.80556337896
 10
261.629688404
 20
1.86345788517
 10
261.398101454
 20
1.94444184183
 10
261.175567475
 20
2.04773532917
 10
260.964229589
 20
2.17234357444
 10
260.766123097
 20
2.31706653212
 10
260.583155873
 20
2.48051044102
 10
260.41708999
 20
2.66110124694
 10
260.269524754
 20
2.85709976171
 10
260.1418813
 20
3.06661841247
 10
260.035388902
 20
3.2876394201
 10
259.951073141
 20
3.51803423146
 10
259.889746024
 20
3.75558401857
 10
259.851998165
 20
3.99800104714
 10
259.838193097
 20
4.24295070864
 10
259.848463768
 20
4.48807400395
 10
259.882711268
 20
4.73101026172
 10
259.940605774
 20
4.96941987299
 10
260.021589731
 20
5.20100682289
 10
260.124883218
 20
5.42354080247
 10
260.249491464
 20
5.63487868788
 10
260.394214421
 20
5.83298517974
 10
350.72741591
 20
117.537430192
 10
333.264900005
 20
115.77715102
 10
333.141534977
 20
115.767792236
 10
293.386296469
 20
113.739668208
 10
243.717160841
 20
110.005737211
 10
243.679657039
 20
110.003201213
 10
199.69339891
 20
107.36089731
 10
199.435999506
 20
107.358710775
 10
186.249461297
 20
107.92621363
 10
206.581256242
 20
58.1830233675
 10
230.458396091
 20
4.68653056891
 10
230.547276878
 20
4.45785804681
 10
230.613315852
 20
4.22157480487
 10
230.655877024
 20
3.97995637988
 10
230.674550504
 20
3.73532968934
 10
230.669156458
 20
3.49005062202
 10
230.639746833
 20
3.24648134942
 10
230.58660486
 20
3.00696757678
 10
230.510242325
 20
2.77381595266
 10
230.411394641
 20
2.54927185466
 10
230.291013765
 20
2.33549776519
 10
230.150259031
 20
2.13455244559
 10
229.990485984
 20
1.94837110913
 10
229.813233326
 20
1.77874678387
 10
229.620208096
 20
1.62731304479
 10
229.413269234
 20
1.49552828156
 10
229.194409673
 20
1.38466165351
 10
228.965737151
 20
1.29578086686
 10
228.729453909
 20
1.22974189219
 10
228.487835484
 20
1.18718072091
 10
228.243208793
 20
1.16850724037
 10
227.997929726
 20
1.1739012864
 10
227.754360453
 20
1.20331091138
 10
227.514846681
 20
1.25645288456
 10
227.281695056
 20
1.33281541967
 10
227.057150958
 20
1.43166310376
 10
226.843376869
 20
1.5520439796
 10
226.642431549
 20
1.69279871355
 10
226.456250213
 20
1.85257176057
 10
226.286625888
 20
2.02982441888
 10
226.135192149
 20
2.22284964848
 10
226.003407385
 20
2.4297885109
 10
225.892540757
 20
2.64864807176
 10
201.999206254
 20
56.1814248312
 10
201.9679782
 20
56.2544890796
 10
180.818464771
 20
107.998286086
 10
179.810953811
 20
107.943247646
 10
168.696795131
 20
48.9177635274
 10
166.819194925
 20
30.6163003319
 10
166.898434501
 20
26.0565204738
 10
176.335041333
 20
16.0814141257
 10
195.342695111
 20
5.24764525619
 10
195.549624533
 20
5.11584566963
 10
195.742638914
 20
4.96439810393
 10
195.919879421
 20
4.79476108195
 10
196.079639131
 20
4.60856830093
 10
196.22037947
 20
4.40761289914
 10
196.340745033
 20
4.19383018696
 10
196.439576632
 20
3.96927900877
 10
196.515922465
 20
3.73612191516
 10
196.569047281
 20
3.49660433641
 10
196.598439458
 20
3.25303295773
 10
196.603815934
 20
3.00775350465
 10
196.58512493
 20
2.76312815238
 10
196.542546451
 20
2.5215127768
 10
196.476490551
 20
2.28523426604
 10
196.387593384
 20
2.05656811134
 10
196.276711079
 20
1.83771649276
 10
196.144911492
 20
1.63078707102
 10
195.993463927
 20
1.43777268958
 10
195.823826905
 20
1.26053218245
 10
195.637634124
 20
1.10077247259
 10
195.436678722
 20
0.960032133345
 10
195.22289601
 20
0.839666571119
 10
194.998344831
 20
0.740834972074
 10
194.765187738
 20
0.664489138536
 10
194.525670159
 20
0.611364322617
 10
194.28209878
 20
0.581972145335
 10
194.036819327
 20
0.576595669425
 10
193.792193975
 20
0.595286673289
 10
193.550578599
 20
0.637865152341
 10
193.314300089
 20
0.703921052554
 10
193.085633934
 20
0.792818219497
 10
192.866782315
 20
0.903700524858
 10
173.536322263
 20
11.9214588869
 10
172.958170827
 20
12.3753647991
 10
162.599559385
 20
23.3250899059
 10
161.916044624
 20
24.9997180704
 10
161.817348777
 20
30.679093927
 10
161.830025045
 20
30.9776752549
 10
163.733609442
 20
49.532413193
 10
163.763729469
 20
49.7398763953
 10
174.740903926
 20
108.037859651
 10
143.59515276
 20
110.252256195
 10
143.403346911
 20
110.273358942
 10
137.951834303
 20
111.087145045
 10
129.585683205
 20
1.58040603577
 10
129.53661166
 20
1.19094393237
 10
129.449602446
 20
0.808167047926
 10
129.32549351
 20
0.435761733093
 10
129.165480089
 20
0.0773144546279
 10
128.971103199
 20
-0.263722744231
 10
128.744234795
 20
-0.584065488829
 10
128.487059745
 20
-0.880628703418
 10
128.202054786
 20
-1.15055632212
 10
127.891964669
 20
-1.39124879442
 10
127.559775734
 20
-1.60038812023
 10
127.20868714
 20
-1.7759601735
 10
126.842080063
 20
-1.9162740994
 10
126.46348513
 20
-2.01997859811
 10
126.076548417
 20
-2.08607493862
 10
125.684996335
 20
-2.11392657704
 10
125.292599745
 20
-2.10326528686
 10
124.903137642
 20
-2.05419374214
 10
124.520360758
 20
-1.96718452868
 10
124.147955443
 20
-1.84307559276
 10
123.789508164
 20
-1.68306217129
 10
123.448470965
 20
-1.48868528099
 10
123.128128221
 20
-1.26181687756
 10
122.831565006
 20
-1.00464182776
 10
122.561637388
 20
-0.71963686789
 10
122.320944915
 20
-0.409546751522
 10
122.111805589
 20
-0.077357815987
 10
121.936233536
 20
0.273730777673
 10
121.79591961
 20
0.640337854375
 10
121.692215112
 20
1.01893278757
 10
121.626118771
 20
1.40586950107
 10
121.598267133
 20
1.79742158283
 10
121.608928423
 20
2.18981817224
 10
129.965416748
 20
111.570078623
 10
124.400821379
 20
111.427960406
 10
109.939679173
 20
106.039704754
 10
98.9776585609
 20
93.5405149575
 10
96.9272540074
 20
92.6947685299
 10
17.8979066353
 20
98.1081057377
 10
17.8583274649
 20
98.1127769432
 10
17.8185257614
 20
98.1148153964
 10
17.7365681781
 20
98.1271471949
 10
17.6542592953
 20
98.1368614384
 10
17.6153285676
 20
98.1453895878
 10
17.5759183236
 20
98.1513194746
 10
17.4955641161
 20
98.17162514
 10
17.4146037354
 20
98.1893602881
 10
17.3766963747
 20
98.2016632507
 10
17.3380571323
 20
98.2114274628
 10
17.2600801555
 20
98.2395114406
 10
17.1812479697
 20
98.2650966941
 10
17.1447290445
 20
98.2810559857
 10
17.1072329207
 20
98.2945604885
 10
17.0323841356
 20
98.3301523145
 10
16.9564393417
 20
98.3633412734
 10
16.9216605492
 20
98.3828031973
 10
16.8856686523
 20
98.399917935
 10
16.8146688935
 20
98.4426748405
 10
16.7423428814
 20
98.4831478771
 10
16.7096391604
 20
98.5059250043
 10
16.675498112
 20
98.5264851527
 10
16.609031146
 20
98.5759953653
 10
16.5410204547
 20
98.623362702
 10
16.51070676
 20
98.6492356763
 10
16.478745357
 20
98.6730432299
 10
16.4174512971
 20
98.7288299393
 10
16.3544109068
 20
98.7826354028
 10
16.3267791757
 20
98.8113550533
 10
16.2973052239
 20
98.8381807324
 10
16.2417743654
 20
98.8997066819
 10
16.1843113895
 20
98.9594320962
 10
16.1596277307
 20
98.990721837
 10
16.1329250804
 20
99.0203072956
 10
16.0836922158
 20
99.0869799568
 10
16.0323600541
 20
99.1520501335
 10
16.0108621849
 20
99.1856086273
 10
15.9871879972
 20
99.2176689412
 10
15.9447272658
 20
99.2888462199
 10
15.9000202752
 20
99.3586344976
 10
15.8819152316
 20
99.3941385578
 10
15.8614975019
 20
99.4283649687
 10
15.8262178239
 20
99.5033613888
 10
15.7885665571
 20
99.5771956683
 10
15.7740287007
 20
99.6143033713
 10
15.7570640629
 20
99.6503662601
 10
15.7293052008
 20
99.7284595652
 10
15.69907226
 20
99.8056287819
 10
15.6882415983
 20
99.8439827602
 10
15.6748934311
 20
99.8815348217
 10
15.654922718
 20
99.9619729304
 10
15.632399263
 20
100.041733903
 10
15.6253801012
 20
100.080964787
 10
15.6157769547
 20
100.119644374
 10
15.6037867194
 20
100.201652623
 10
15.5891896634
 20
100.283237209
 10
15.5860495998
 20
100.322967184
 10
15.5802839577
 20
100.362401791
 10
15.5763896727
 20
100.445190397
 10
15.5698595934
 20
100.527812893
 10
15.5706288686
 20
100.567659337
 10
15.568756257
 20
100.607469188
 10
15.5729954265
 20
100.69024085
 10
15.574595212
 20
100.773105556
 10
15.5792664174
 20
100.812684726
 10
15.5813048707
 20
100.85248643
 10
17.1043188785
 20
115.992516262
 10
14.2712776065
 20
116.996075928
 10
14.0443180343
 20
117.08924389
 10
13.8275833917
 20
117.204209152
 10
13.6231609518
 20
117.339864534
 10
13.4330194144
 20
117.494903601
 10
13.2589899465
 20
117.667833242
 10
13.102748547
 20
117.856988051
 10
12.965799906
 20
118.060546363
 10
12.8494629137
 20
118.2765478
 10
12.7548579591
 20
118.50291215
 10
12.6828961394
 20
118.737459402
 10
12.6342704864
 20
118.977930736
 10
12.6094492917
 20
119.222010282
 10
12.608671597
 20
119.467347421
 10
12.6319448919
 20
119.711579422
 10
12.6790450418
 20
119.952354197
 10
12.7495184466
 20
120.187352955
 10
12.8426864089
 20
120.414312527
 10
12.9576516701
 20
120.631047169
 10
13.0933070521
 20
120.835469609
 10
13.2483461193
 20
121.025611147
 10
13.4212757608
 20
121.199640614
 10
13.6104305696
 20
121.355882014
 10
13.8139888814
 20
121.492830655
 10
14.0299903185
 20
121.609167647
 10
14.256354669
 20
121.703772602
 10
14.4909019203
 20
121.775734422
 10
14.7313732543
 20
121.824360075
 10
14.9754528005
 20
121.849181269
 10
15.2207899395
 20
121.849958964
 10
15.4650219406
 20
121.826685669
 10
15.705796716
 20
121.779585519
 10
15.9407954731
 20
121.709112114
 10
20.622861
 20
120.05056511
 10
22.2755480286
 20
117.443821945
 10
20.8145255748
 20
102.920039876
 10
96.0344347308
 20
97.7676408429
 10
106.596340671
 20
109.810609162
 10
107.603018749
 20
110.504864378
 10
123.046506729
 20
116.25914438
 10
123.855560516
 20
116.415665023
 10
130.303844385
 20
116.580352398
 10
134.52091797
 20
192.347057794
 10
134.596616031
 20
192.929957577
 10
137.106795696
 20
205.144691621
 10
141.047996467
 20
224.293888272
 10
141.271467181
 20
225.020936139
 10
148.592846707
 20
242.660187301
 10
130.207156511
 20
243.60731473
 10
114.894747062
 20
243.970361773
 10
111.665618377
 20
243.943342015
 10
97.2571062378
 20
232.56173816
 10
97.1888425482
 20
232.513057843
 10
97.1221253608
 20
232.462278698
 10
97.0890196744
 20
232.441871986
 10
97.0573562796
 20
232.419292133
 10
96.9846497928
 20
232.377537236
 10
96.9132766403
 20
232.333542035
 10
96.8783301592
 20
232.316478511
 10
96.8446060197
 20
232.297110941
 10
96.7681569389
 20
232.262683588
 10
96.6928151838
 20
232.225896028
 10
96.6563644619
 20
232.212340024
 10
96.6209043595
 20
232.196371258
 10
96.5414489312
 20
232.169603002
 10
96.4628641558
 20
232.140377367
 10
96.4252602334
 20
232.130459435
 10
96.3884056682
 20
232.118043261
 10
96.3067090916
 20
232.099191895
 10
96.2256381102
 20
232.077809644
 10
96.1872431336
 20
232.071625299
 10
96.1493490354
 20
232.062881291
 10
96.0661980931
 20
232.052128364
 10
95.9834216637
 20
232.038795421
 10
95.9446053975
 20
232.036404221
 10
95.9060367071
 20
232.031416589
 10
95.8222321882
 20
232.028865658
 10
95.7385474929
 20
232.023710425
 10
95.6996837591
 20
232.025135399
 10
95.660811914
 20
232.023952176
 10
95.5771609018
 20
232.029627808
 10
95.4933738701
 20
232.032699934
 10
95.4548369476
 20
232.037927358
 10
95.416036305
 20
232.04055994
 10
95.3333444044
 20
232.054407475
 10
95.2502619512
 20
232.065677373
 10
95.2124229716
 20
232.074656904
 10
95.1740672029
 20
232.081079938
 10
95.0931307823
 20
232.102966017
 10
95.0115530369
 20
232.122325152
 10
94.9747764103
 20
232.134970313
 10
94.9372349025
 20
232.14512194
 10
94.8588334237
 20
232.174835789
 10
94.7795460246
 20
232.202097721
 10
94.74418593
 20
232.218286732
 10
94.7078202283
 20
232.232069188
 10
94.6327087405
 20
232.269324645
 10
94.5564752685
 20
232.304226828
 10
82.8474091078
 20
238.376835181
 10
82.2702250092
 20
238.789621893
 10
69.1777122768
 20
251.314362237
 10
52.0412193242
 20
255.540932149
 10
51.8670930813
 20
255.590633461
 10
28.3545820487
 20
263.233015247
 10
18.1619547477
 20
171.774027613
 10
18.0993870024
 20
171.38650468
 10
17.9991366481
 20
171.006980487
 10
17.8621691506
 20
170.63911006
 10
17.6898035817
 20
170.286436192
 10
17.4836999162
 20
169.952355326
 10
17.245843045
 20
169.640084841
 10
16.9785236597
 20
169.352632075
 10
16.6843161922
 20
169.092765354
 10
16.3660540213
 20
168.862987338
 10
16.0268021856
 20
168.665510913
 10
15.6698278657
 20
168.502237885
 10
15.2985689195
 20
168.374740664
 10
14.9166007737
 20
168.284247117
 10
14.5276019901
 20
168.231628747
 10
14.1353188399
 20
168.217392297
 10
13.7435292241
 20
168.241674872
 10
13.3560062909
 20
168.304242617
 10
12.9764820981
 20
168.404492971
 10
12.608611671
 20
168.541460469
 10
12.255937803
 20
168.713826038
 10
11.9218569362
 20
168.919929703
 10
11.609586452
 20
169.157786574
 10
11.3221336859
 20
169.42510596
 10
11.0622669651
 20
169.719313427
 10
10.8324889482
 20
170.037575598
 10
10.6350125232
 20
170.376827434
 10
10.4717394959
 20
170.733801754
 10
10.3442422748
 20
171.1050607
 10
10.253748728
 20
171.487028846
 10
10.2011303577
 20
171.876027629
 10
10.1868939075
 20
172.26831078
 10
10.2111764824
 20
172.660100395
 10
20.3396768367
 20
263.543673522
 10
12.02440711
 20
264.563544188
 10
11.6375994625
 20
264.630391703
 10
11.2592066019
 20
264.734831109
 10
10.8928726583
 20
264.875856597
 10
10.5421256277
 20
265.052110014
 10
10.210343396
 20
265.261893944
 10
9.90072120719
 20
265.503188052
 10
9.61624089237
 20
265.773668545
 10
9.35964215243
 20
266.070730547
 10
9.13339617352
 20
266.39151319
 10
8.93968182809
 20
266.732927159
 10
8.78036469119
 20
267.091684454
 10
8.65697907392
 20
267.464330044
 10
8.57071324724
 20
267.84727515
 10
8.52239799821
 20
268.236831799
 10
8.5124986291
 20
268.629248349
 10
8.54111047624
 20
269.020745615
 10
8.6079579919
 20
269.407553262
 10
8.71239739796
 20
269.785946123
 10
8.85342288586
 20
270.152280066
 10
9.02967630304
 20
270.503027097
 10
9.23946023276
 20
270.834809329
 10
9.48075434108
 20
271.144431517
 10
9.75123483385
 20
271.428911832
 10
10.0482968361
 20
271.685510572
 10
10.3690794782
 20
271.911756551
 10
10.7104934482
 20
272.105470897
 10
11.0692507427
 20
272.264788033
 10
11.4418963329
 20
272.388173651
 10
11.8248414382
 20
272.474439477
 10
12.2143980877
 20
272.522754726
 10
12.6068146381
 20
272.532654096
 10
12.9983119033
 20
272.504042248
 10
20.6225627029
 20
271.568925289
 10
19.3777625068
 20
315.328046367
 10
19.3780957437
 20
315.344182694
 10
19.3769755018
 20
315.360283538
 10
19.3782013586
 20
315.40296952
 10
19.3761469052
 20
315.445623652
 10
19.3830274856
 20
315.582992422
 10
19.3858672862
 20
315.720504083
 10
19.3877805551
 20
315.736530047
 10
19.3882438662
 20
315.752663163
 10
19.393647778
 20
315.795023446
 10
19.3957840535
 20
315.837673559
 10
23.4565460487
 20
356.665773976
 10
15.3958180971
 20
359.349537303
 10
14.6226572408
 20
359.702085506
 10
8.76888731964
 20
363.165310754
 10
8.44125811225
 20
363.381523263
 10
8.13639906085
 20
363.628807927
 10
7.85724612477
 20
363.904783261
 10
7.60648769938
 20
364.20679147
 10
7.3865387254
 20
364.531924052
 10
7.19951743168
 20
364.8770498
 10
7.04722493551
 20
365.238844966
 10
6.93112789689
 20
365.613825264
 10
6.85234439376
 20
365.99837943
 10
6.81163315433
 20
366.388803995
 10
6.80938625008
 20
366.781338959
 10
6.84562531994
 20
367.172203995
 10
6.92000136185
 20
367.557634859
 10
7.03179809386
 20
367.933919641
 10
7.17993885234
 20
368.297434513
 10
7.36299696079
 20
368.644678628
 10
7.57920946957
 20
368.972307836
 10
7.82649413402
 20
369.277166887
 10
8.10246946764
 20
369.556319823
 10
8.40447767711
 20
369.807078248
 10
8.72961025827
 20
370.027027222
 10
9.07473600664
 20
370.214048516
 10
9.43653117258
 20
370.366341012
 10
9.81151147088
 20
370.482438051
 10
10.1960656363
 20
370.561221554
 10
10.5864902019
 20
370.601932793
 10
10.9790251659
 20
370.604179698
 10
11.3698902018
 20
370.567940628
 10
11.7553210657
 20
370.493564586
 10
12.1316058478
 20
370.381767854
 10
12.4951207198
 20
370.233627095
 10
12.8423648348
 20
370.050568987
 10
18.3283843749
 20
366.804913343
 10
24.5109614694
 20
364.746467286
 10
30.3763339929
 20
403.404977055
 10
31.759344906
 20
419.36121362
  0
LWPOLYLINE
  5
632
330
1F
100
AcDbEntity
  8
outline
 67
0
100
AcDbPolyline
 90
5
 70
0
 10
31.425998014
 20
424.673676875
 10
32.2957144445
 20
424.416563001
 10
39.2993675084
 20
484.410051948
 10
38.2038991271
 20
484.535125307
 10
31.425998014
 20
424.673676875
  0
LWPOLYLINE
  5
633
330
1F
100
AcDbEntity
  8
outline
 67
0
100
AcDbPolyline
 90
31
 70
0
 10
74.3686481532
 20
412.070226535
 10
74.2470813302
 20
412.125554712
 10
74.0348189706
 20
412.248581568
 10
73.8356374528
 20
412.391821366
 10
73.6514550038
 20
412.553894627
 10
73.4840454012
 20
412.733240498
 10
73.3350208911
 20
412.928131781
 10
73.2058166609
 20
413.136691565
 10
73.0976770179
 20
413.356911306
 10
73.0116434062
 20
413.586670167
 10
72.9485443764
 20
413.823755445
 10
72.9089876065
 20
414.065883879
 10
72.8933540501
 20
414.31072364
 10
72.9017942667
 20
414.555916787
 10
72.9342269724
 20
414.799101976
 10
72.9903398226
 20
415.0379372
 10
73.0206816404
 20
415.126829169
 10
70.07050551
 20
421.816547384
 10
69.9043618467
 20
422.263811047
 10
64.586261245
 20
439.70296159
 10
64.1674425701
 20
437.099186401
 10
62.58876577
 20
415.954245931
 10
63.0780747518
 20
405.785598578
 10
66.1480334419
 20
394.694312561
 10
72.9496138814
 20
388.156399413
 10
82.0186036016
 20
384.755005083
 10
87.9939683266
 20
382.629899192
 10
91.7985635492
 20
382.327114599
 10
80.7969944238
 20
397.702567334
 10
80.3901080374
 20
398.416170613
 10
74.3686481532
 20
412.070226535
  0
LWPOLYLINE
  5
634
330
1F
100
AcDbEntity
  8
outline
 67
0
100
AcDbPolyline
 90
16
 70
0
 10
80.2641759613
 20
418.527941566
 10
82.3144194486
 20
419.182888692
 10
79.585450423
 20
434.87155222
 10
79.5912828204
 20
435.760686949
 10
79.5913357808
 20
435.760969415
 10
77.8106015036
 20
442.866227329
 10
77.7576975825
 20
443.109082877
 10
74.2401144964
 20
462.071680376
 10
74.1768406717
 20
462.626447757
 10
73.3687030825
 20
481.102588602
 10
71.2830247275
 20
481.336412179
 10
68.3331241402
 20
462.997024703
 10
68.3345516697
 20
462.677591621
 10
71.8258182928
 20
443.389305871
 10
77.4867538411
 20
424.825928711
 10
80.2641759613
 20
418.527941566
  0
LWPOLYLINE
  5
635
330
1F
100
AcDbEntity
  8
outline
 67
0
100
AcDbPolyline
 90
9
 70
0
 10
83.9731684651
 20
414.463851434
 10
82.2931258407
 20
413.927164404
 10
87.543311696
 20
402.022023019
 10
99.6981876182
 20
385.034744376
 10
99.9526100228
 20
385.385903039
 10
100.246084281
 20
385.684821674
 10
99.8688598595
 20
386.288945192
 10
99.8119426917
 20
386.384789965
 10
83.9731684651
 20
414.463851434
  0
LWPOLYLINE
  5
636
330
1F
100
AcDbEntity
  8
outline
 67
0
100
AcDbPolyline
 90
29
 70
0
 10
38.4311134378
 20
403.690932617
 10
45.3922332616
 20
389.437748932
 10
45.448221384
 20
389.318143319
 10
47.1510908957
 20
385.518222514
 10
48.6123194335
 20
383.32831311
 10
50.4289701093
 20
384.215280476
 10
46.9660808428
 20
388.695156701
 10
46.9212791052
 20
388.759399792
 10
46.8742244038
 20
388.822011496
 10
46.8511491517
 20
388.859962074
 10
46.8257428249
 20
388.896393272
 10
46.7874537439
 20
388.964718353
 10
46.7467626439
 20
389.031640732
 10
46.7275183127
 20
389.071670337
 10
46.705805206
 20
389.110416364
 10
46.6743975265
 20
389.182165428
 10
46.6404619055
 20
389.252753982
 10
46.6252338284
 20
389.294477109
 10
46.6074230511
 20
389.33516482
 10
46.5831992461
 20
389.409646883
 10
46.5563459227
 20
389.483221807
 10
44.5103278802
 20
396.077135485
 10
44.4134973058
 20
397.095711082
 10
50.2800531214
 20
449.582771237
 10
50.2877604323
 20
449.644712267
 10
54.8736184921
 20
483.086992953
 10
47.2656353088
 20
483.655720318
 10
39.8742662073
 20
420.3410449
 10
38.4311134378
 20
403.690932617
  0
LWPOLYLINE
  5
637
330
1F
100
AcDbEntity
  8
outline
 67
0
100
AcDbPolyline
 90
17
 70
0
 10
51.1980033634
 20
391.395988243
 10
54.4877643061
 20
387.14008495
 10
61.1326786097
 20
394.070580749
 10
58.1849462129
 20
404.720282069
 10
58.0972429519
 20
405.26702289
 10
57.5871691806
 20
415.867196803
 10
57.5912184654
 20
416.173487652
 10
59.1892316899
 20
437.577421947
 10
59.214019866
 20
437.788313616
 10
61.7998283926
 20
453.864158583
 10
60.4001140124
 20
461.597194712
 10
60.336196043
 20
462.291760455
 10
60.2455582348
 20
482.57345399
 10
59.85599559
 20
482.617256016
 10
55.2456435913
 20
448.996353757
 10
49.4406099224
 20
397.059721607
 10
51.1980033634
 20
391.395988243
  0
LWPOLYLINE
  5
638
330
1F
100
AcDbEntity
  8
outline
 67
0
100
AcDbPolyline
 90
10
 70
0
 10
63.9936098982
 20
389.829853457
 10
57.9678696841
 20
383.545142273
 10
72.7663069737
 20
371.530867281
 10
83.3382449685
 20
370.169993672
 10
84.6701615807
 20
378.505197664
 10
80.3230118054
 20
380.051237784
 10
80.2827950743
 20
380.065929791
 10
70.7109526043
 20
383.65592291
 10
69.8563925751
 20
384.19434502
 10
63.9936098982
 20
389.829853457
  0
LWPOLYLINE
  5
639
330
1F
100
AcDbEntity
  8
outline
 67
0
100
AcDbPolyline
 90
34
 70
0
 10
111.842559077
 20
388.808925146
 10
111.859620812
 20
388.803474888
 10
114.137689764
 20
387.645030178
 10
114.782361584
 20
387.174214731
 10
115.158486447
 20
386.793753462
 10
121.34795739
 20
390.704771651
 10
131.281738245
 20
397.695198448
 10
131.31249019
 20
397.714655287
 10
131.341825804
 20
397.736188344
 10
131.405802518
 20
397.778480762
 10
130.350222908
 20
400.063306285
 10
125.381347817
 20
410.711810758
 10
125.148567626
 20
411.676037199
 10
124.609813371
 20
426.162283303
 10
125.08407564
 20
427.722636269
 10
129.303308437
 20
433.542138147
 10
130.025317317
 20
434.20889357
 10
134.072420587
 20
436.677896382
 10
133.409893495
 20
445.751831814
 10
133.844194507
 20
447.351721137
 10
139.003557567
 20
454.844428548
 10
136.042448794
 20
463.568570122
 10
132.812012899
 20
469.221245015
 10
127.77915125
 20
474.19154805
 10
113.359076269
 20
479.008882688
 10
103.802698155
 20
479.523284163
 10
101.095816127
 20
474.405319395
 10
100.918169625
 20
474.118203087
 10
92.4627804241
 20
462.315712149
 10
87.01161927
 20
448.20494617
 10
86.0309208584
 20
442.974359302
 10
89.7560852633
 20
428.11068525
 10
99.4571051318
 20
408.74765493
 10
111.842559077
 20
388.808925146
  0
LWPOLYLINE
  5
63A
330
1F
100
AcDbEntity
  8
outline
 67
0
100
AcDbPolyline
 90
18
 70
0
 10
105.573274279
 20
484.435215868
 10
113.965171471
 20
483.983496164
 10
114.62294013
 20
483.858292835
 10
129.016293956
 20
479.04988497
 10
135.536365549
 20
481.820514047
 10
135.839794091
 20
481.926981888
 10
140.956708569
 20
483.360241208
 10
137.974258446
 20
494.386473858
 10
131.416252112
 20
514.263807435
 10
127.285497094
 20
523.72675017
 10
115.250059787
 20
531.35878982
 10
114.745126036
 20
530.240931616
 10
112.056863112
 20
516.799485563
 10
110.670765412
 20
505.799940124
 10
110.635008538
 20
505.58924555
 10
108.002149018
 20
493.28869622
 10
107.968144858
 20
493.149460706
 10
105.573274279
 20
484.435215868
  0
LWPOLYLINE
  5
63B
330
1F
100
AcDbEntity
  8
outline
 67
0
100
AcDbPolyline
 90
10
 70
0
 10
133.532985355
 20
475.53649271
 10
136.569202747
 20
472.538015586
 10
136.983077836
 20
471.999672605
 10
140.502988473
 20
465.840469597
 10
140.69978945
 20
465.403541367
 10
141.658888097
 20
462.577805121
 10
145.052633829
 20
473.63238658
 10
142.664744254
 20
478.646225985
 10
137.343545288
 20
477.155746118
 10
133.532985355
 20
475.53649271
  0
LWPOLYLINE
  5
63C
330
1F
100
AcDbEntity
  8
outline
 67
0
100
AcDbPolyline
 90
96
 70
0
 10
143.759907768
 20
452.935619965
 10
138.460598293
 20
445.239674765
 10
138.927575006
 20
438.843986804
 10
140.729085672
 20
439.514762138
 10
140.739772663
 20
439.518154271
 10
140.750114929
 20
439.522485075
 10
140.856670033
 20
439.555258388
 10
140.96292718
 20
439.588985217
 10
140.973895198
 20
439.591313507
 10
140.984612156
 20
439.594609738
 10
143.200673467
 20
440.158813791
 10
143.027994501
 20
440.808506264
 10
143.054276576
 20
442.184631613
 10
145.175864447
 20
449.092733135
 10
145.639083476
 20
449.951935256
 10
146.801405176
 20
451.357537488
 10
147.523573668
 20
451.955111456
 10
153.024685313
 20
454.979578118
 10
154.218546348
 20
455.288823462
 10
160.58618018
 20
455.315786361
 10
161.85873572
 20
454.973917305
 10
166.58392629
 20
452.210827627
 10
167.611150998
 20
451.0575021
 10
169.38975103
 20
447.005322416
 10
183.216584477
 20
451.653894311
 10
215.195901412
 20
463.806193767
 10
215.276735655
 20
463.835331522
 10
236.591986843
 20
471.107279349
 10
217.285272977
 20
495.467704255
 10
173.456998806
 20
536.873009428
 10
160.374117879
 20
547.870439508
 10
140.729748583
 20
546.838472593
 10
140.702372684
 20
546.837184897
 10
128.789719657
 20
546.342266983
 10
118.489100233
 20
538.521181504
 10
117.330196544
 20
535.9602723
 10
130.60940614
 20
527.539518524
 10
131.561792584
 20
526.428392402
 10
136.045182725
 20
516.157615273
 10
136.128090271
 20
515.940735552
 10
142.743864224
 20
495.888308178
 10
142.783015635
 20
495.75778706
 10
145.800485379
 20
484.602085529
 10
147.561138624
 20
485.011086207
 10
147.580382788
 20
485.014571457
 10
147.599274078
 20
485.019631493
 10
147.701049431
 20
485.036425013
 10
147.802549832
 20
485.054807431
 10
147.822042944
 20
485.05638964
 10
147.841339238
 20
485.05957364
 10
153.28564707
 20
485.685381216
 10
155.840232552
 20
486.153184688
 10
156.083435703
 20
486.185482426
 10
156.328633497
 20
486.193786564
 10
156.573464544
 20
486.178017129
 10
156.815570987
 20
486.138325989
 10
157.05262121
 20
486.075095392
 10
157.282332289
 20
485.988934282
 10
157.50249198
 20
485.880672438
 10
157.710980027
 20
485.751352482
 10
157.905788574
 20
485.602219834
 10
158.085041508
 20
485.434710724
 10
158.247012528
 20
485.250438356
 10
158.390141761
 20
485.051177374
 10
158.513050797
 20
484.83884677
 10
158.614555954
 20
484.615491403
 10
158.693679681
 20
484.383262308
 10
158.749659974
 20
484.144395979
 10
158.781957712
 20
483.901192828
 10
158.79026185
 20
483.655995034
 10
158.774492415
 20
483.411163987
 10
158.734801275
 20
483.169057544
 10
158.671570678
 20
482.932007321
 10
158.585409568
 20
482.702296242
 10
158.477147724
 20
482.48213655
 10
158.347827768
 20
482.273648504
 10
158.19869512
 20
482.078839957
 10
158.03118601
 20
481.899587022
 10
157.846913642
 20
481.737616003
 10
157.64765266
 20
481.594486769
 10
157.435322056
 20
481.471577734
 10
157.211966689
 20
481.370072577
 10
156.979737594
 20
481.29094885
 10
156.740871265
 20
481.234968557
 10
154.104279232
 20
480.752147796
 10
154.021670266
 20
480.741177203
 10
153.939447843
 20
480.727610029
 10
148.553796528
 20
480.108544852
 10
147.610739014
 20
479.889472094
 10
149.985201282
 20
474.903825938
 10
150.118023386
 20
473.095163764
 10
144.17181487
 20
453.726344885
 10
144.088391524
 20
453.495625441
 10
143.982755424
 20
453.274193892
 10
143.855923903
 20
453.064182745
 10
143.759907768
 20
452.935619965
  0
LWPOLYLINE
  5
63D
330
1F
100
AcDbEntity
  8
outline
 67
0
100
AcDbPolyline
 90
50
 70
0
 10
142.348150106
 20
434.782257598
 10
140.600412468
 20
434.131504137
 10
143.382877452
 20
430.213920576
 10
149.951560475
 20
426.348717898
 10
151.144898725
 20
424.632815596
 10
159.506282159
 20
377.72915922
 10
166.920446704
 20
370.846181936
 10
175.30975465
 20
368.157720178
 10
223.724605321
 20
363.07430011
 10
237.729322068
 20
466.212323552
 10
216.931843807
 20
459.117020029
 10
184.947323337
 20
446.962743204
 10
184.855947834
 20
446.930035349
 10
171.199212936
 20
442.338650469
 10
171.217895703
 20
440.93967542
 10
167.93397214
 20
432.625979105
 10
167.887078926
 20
432.522443202
 10
167.840934019
 20
432.418571624
 10
167.836477181
 20
432.410719205
 10
167.832752031
 20
432.402494417
 10
167.775936327
 20
432.304053405
 10
167.719832426
 20
432.20520499
 10
167.714627377
 20
432.197827229
 10
167.710113994
 20
432.190007173
 10
167.643922967
 20
432.097609095
 10
167.578400382
 20
432.004735806
 10
167.57249725
 20
431.997903755
 10
167.567239101
 20
431.990563744
 10
167.492310206
 20
431.905098443
 10
167.417999957
 20
431.819094701
 10
167.411455592
 20
431.812874156
 10
167.405503315
 20
431.806084878
 10
167.322558159
 20
431.728375432
 10
167.240175893
 20
431.650069499
 10
167.233053321
 20
431.644520367
 10
167.22646424
 20
431.638347207
 10
167.13630163
 20
431.569142
 10
167.046640733
 20
431.499288006
 10
167.039008548
 20
431.494463729
 10
167.031846121
 20
431.488966137
 10
166.935334372
 20
431.428931653
 10
166.839258328
 20
431.36820233
 10
161.070797265
 20
428.10664587
 10
160.145903225
 20
427.801616493
 10
157.684602915
 20
427.498504081
 10
156.467213716
 20
427.651973678
 10
148.103067879
 20
430.928302049
 10
146.813928722
 20
432.070430908
 10
144.990644392
 20
435.455030493
 10
142.348150106
 20
434.782257598
  0
LWPOLYLINE
  5
63E
330
1F
100
AcDbEntity
  8
outline
 67
0
100
AcDbPolyline
 90
52
 70
0
 10
242.827617277
 20
466.598305715
 10
228.724930786
 20
362.738782079
 10
231.445419184
 20
362.440374815
 10
231.446308063
 20
362.440232882
 10
231.447206535
 20
362.440178112
 10
241.270183034
 20
361.355556226
 10
241.270243961
 20
361.355546452
 10
241.270305553
 20
361.355542695
 10
248.055371896
 20
360.606018585
 10
248.059266638
 20
360.647328235
 10
248.066026279
 20
360.69424549
 10
248.069947733
 20
360.741484709
 10
248.083509319
 20
360.815591612
 10
248.094252709
 20
360.890159228
 10
248.105578496
 20
360.936188004
 10
248.114111321
 20
360.982815383
 10
248.134871351
 20
361.055236173
 10
248.152871912
 20
361.12839169
 10
248.168654771
 20
361.173088702
 10
248.181716791
 20
361.218655195
 10
248.209475334
 20
361.288692421
 10
248.234559713
 20
361.35973131
 10
248.254647646
 20
361.402666103
 10
248.272113066
 20
361.446732879
 10
251.49952348
 20
368.550675194
 10
252.007225215
 20
369.283726709
 10
255.546503499
 20
372.82559769
 10
258.663243941
 20
376.585183421
 10
259.941484634
 20
377.404625255
 10
265.067939481
 20
378.776774202
 10
265.571465519
 20
378.857699612
 10
273.150817608
 20
379.291556011
 10
284.944792935
 20
381.06666943
 10
288.73394697
 20
387.24539854
 10
288.761504232
 20
387.289306314
 10
296.170021438
 20
398.826103871
 10
300.391172477
 20
407.874769417
 10
302.99824779
 20
416.043982466
 10
303.057729704
 20
416.209925397
 10
307.061462209
 20
426.250159661
 10
310.188173127
 20
436.591019137
 10
310.965234995
 20
444.230646264
 10
296.110228743
 20
448.940874876
 10
295.491876182
 20
449.235361966
 10
287.761118885
 20
454.321048238
 10
272.514779078
 20
457.154084832
 10
272.212824867
 20
457.229910199
 10
264.654959742
 20
459.637029199
 10
264.654496638
 20
459.637202151
 10
264.654018862
 20
459.637329066
 10
248.921992208
 20
464.654697922
 10
242.827617277
 20
466.598305715
  0
LWPOLYLINE
  5
63F
330
1F
100
AcDbEntity
  8
outline
 67
0
100
AcDbPolyline
 90
208
 70
0
 10
252.997823254
 20
359.760445169
 10
252.794843965
 20
357.607541324
 10
250.031384636
 20
355.357320172
 10
240.721372652
 20
356.385766777
 10
230.899351052
 20
357.470283226
 10
228.450937573
 20
357.738846903
 10
228.701483718
 20
350.970934877
 10
234.405432496
 20
335.906256427
 10
248.022080557
 20
320.816491404
 10
274.870397556
 20
308.71449979
 10
283.533371176
 20
306.702238954
 10
283.592766699
 20
306.685331537
 10
283.652915992
 20
306.67134042
 10
283.710677821
 20
306.651767181
 10
283.769335616
 20
306.635069765
 10
283.826787916
 20
306.612421983
 10
283.885276205
 20
306.592602575
 10
283.940841382
 20
306.567461938
 10
283.99758009
 20
306.545095455
 10
284.052535871
 20
306.516925418
 10
284.108799881
 20
306.491468591
 10
284.161633283
 20
306.461002672
 10
284.21590648
 20
306.433182524
 10
284.267836488
 20
306.399761525
 10
284.321334366
 20
306.368912443
 10
284.370927178
 20
306.333414647
 10
284.422212184
 20
306.300408757
 10
284.470616303
 20
306.262058658
 10
284.520832835
 20
306.226114413
 10
305.600553432
 20
289.514326791
 10
317.062228323
 20
322.329124348
 10
317.209695927
 20
322.69291282
 10
317.392110939
 20
323.040495199
 10
317.607716604
 20
323.368524075
 10
317.854436522
 20
323.673840352
 10
318.129894643
 20
323.953503667
 10
318.431438157
 20
324.204820709
 10
318.756163035
 20
324.425371158
 10
319.100941997
 20
324.613030992
 10
319.462454635
 20
324.765992945
 10
319.837219384
 20
324.88278391
 10
320.221627055
 20
324.962279125
 10
320.611975591
 20
325.003713008
 10
321.004505724
 20
325.006686528
 10
321.395437172
 20
324.971171049
 10
321.781005053
 20
324.897508605
 10
322.157496137
 20
324.786408604
 10
322.521284609
 20
324.638941
 10
322.868866987
 20
324.456525988
 10
323.196895863
 20
324.240920323
 10
323.50221214
 20
323.994200405
 10
323.781875455
 20
323.718742284
 10
324.033192497
 20
323.41719877
 10
324.253742946
 20
323.092473892
 10
324.44140278
 20
322.74769493
 10
324.594364733
 20
322.386182292
 10
324.711155698
 20
322.011417543
 10
324.790650913
 20
321.627009872
 10
324.832084796
 20
321.236661336
 10
324.835058317
 20
320.844131203
 10
324.799542838
 20
320.453199755
 10
324.725880393
 20
320.067631874
 10
324.614780392
 20
319.69114079
 10
313.24663674
 20
287.144123354
 10
396.301407436
 20
252.067866368
 10
396.527485272
 20
251.963988148
 10
478.466917662
 20
211.181854171
 10
478.958915806
 20
210.891404054
 10
502.098544838
 20
194.898166861
 10
513.585630784
 20
212.251443065
 10
511.622958947
 20
213.830659451
 10
510.528661141
 20
214.698834483
 10
510.522895001
 20
214.703889414
 10
510.516688637
 20
214.708392941
 10
495.989488533
 20
226.379498498
 10
493.802822283
 20
227.592800941
 10
492.189947289
 20
228.458101891
 10
492.104052907
 20
228.509765261
 10
492.017244105
 20
228.559876943
 10
465.33185586
 20
245.76326062
 10
464.608031615
 20
246.47516078
 10
453.129934514
 20
263.646516186
 10
437.894584008
 20
255.322361558
 10
435.941699827
 20
255.132732982
 10
426.052366974
 20
258.261959432
 10
425.285423014
 20
258.661518554
 10
417.660334217
 20
264.507844548
 10
417.46341437
 20
264.675701005
 10
409.877285773
 20
271.852311941
 10
409.281575297
 20
272.721619301
 10
405.1749737
 20
282.757297543
 10
405.059984726
 20
283.111570079
 10
402.471405507
 20
293.722168578
 10
402.467376829
 20
293.7430938
 10
402.461665375
 20
293.763623644
 10
402.444193575
 20
293.863509176
 10
402.425022963
 20
293.963082621
 10
402.423064715
 20
293.984301962
 10
402.41939304
 20
294.005292769
 10
402.411795865
 20
294.106409861
 10
402.402477469
 20
294.207382882
 10
402.40260851
 20
294.228691988
 10
402.401011974
 20
294.249941605
 10
402.40336259
 20
294.351316444
 10
402.403986151
 20
294.452716614
 10
402.406205218
 20
294.473910267
 10
402.406699197
 20
294.49521405
 10
402.418974966
 20
294.595870341
 10
402.429534479
 20
294.696721122
 10
402.433820202
 20
294.717595214
 10
402.436399938
 20
294.738747995
 10
402.458482638
 20
294.837716363
 10
402.478876409
 20
294.937046506
 10
402.485187514
 20
294.95740001
 10
402.489828163
 20
294.978198076
 10
402.521505125
 20
295.074525401
 10
402.551536751
 20
295.171378304
 10
402.559812459
 20
295.191015204
 10
402.566469329
 20
295.211258258
 10
407.22699224
 20
307.342335264
 10
407.907856564
 20
308.321437353
 10
425.603390627
 20
323.914771132
 10
430.480362533
 20
330.579020027
 10
426.9134266
 20
335.626992725
 10
420.72035655
 20
339.735473473
 10
416.522983062
 20
342.516753214
 10
410.048494513
 20
346.806849069
 10
408.450148293
 20
346.931396956
 10
408.438346544
 20
346.932344704
 10
405.743001702
 20
347.155221218
 10
404.524692431
 20
347.592141295
 10
401.986092505
 20
349.352018876
 10
397.382379074
 20
351.743683996
 10
388.825331206
 20
354.904178204
 10
387.353928879
 20
358.135764658
 10
388.494905739
 20
361.144586515
 10
391.516744879
 20
370.078017228
 10
355.49887399
 20
383.058879803
 10
355.393849721
 20
383.099425012
 10
347.644009003
 20
386.293604497
 10
346.191220543
 20
389.286029678
 10
357.1393697
 20
427.954390615
 10
322.216942957
 20
437.518640837
 10
322.216333243
 20
437.52082908
 10
322.167915102
 20
437.532607056
 10
321.936360222
 20
437.613682662
 10
321.713867141
 20
437.717064215
 10
321.502578588
 20
437.841756092
 10
315.727892769
 20
441.643601206
 10
315.138113311
 20
435.845227446
 10
315.043948788
 20
435.374649207
 10
311.816400559
 20
424.70029409
 10
311.745574202
 20
424.497842099
 10
307.734750298
 20
414.439824605
 10
305.105942694
 20
406.202513902
 10
304.989891968
 20
405.905689492
 10
300.630126587
 20
396.559883469
 10
300.468128215
 20
396.265914234
 10
292.982728674
 20
384.609392864
 10
289.859474102
 20
379.516503061
 10
291.303105102
 20
378.557976123
 10
292.063759496
 20
377.761865434
 10
295.738464072
 20
371.639718903
 10
298.563208927
 20
367.416644218
 10
298.689440549
 20
367.206271943
 10
298.794444243
 20
366.984539805
 10
298.877208765
 20
366.753583206
 10
298.936937047
 20
366.515626385
 10
298.973053875
 20
366.272960995
 10
298.985211423
 20
366.027924037
 10
298.973292606
 20
365.782875351
 10
298.937412211
 20
365.54017489
 10
298.877915785
 20
365.302159992
 10
298.79537631
 20
365.07112287
 10
298.690588688
 20
364.849288538
 10
298.564562079
 20
364.638793382
 10
298.418510191
 20
364.441664586
 10
298.253839581
 20
364.259800607
 10
298.072136117
 20
364.094952895
 10
297.875149705
 20
363.948709024
 10
297.664777429
 20
363.822477402
 10
297.443045292
 20
363.717473709
 10
297.212088693
 20
363.634709187
 10
296.974131871
 20
363.574980904
 10
296.731466482
 20
363.538864076
 10
296.486429524
 20
363.526706529
 10
296.241380838
 20
363.538625345
 10
295.998680377
 20
363.57450574
 10
295.760665479
 20
363.634002167
 10
295.529628357
 20
363.716541641
 10
295.307794025
 20
363.821329264
 10
295.097298869
 20
363.947355872
 10
294.900170073
 20
364.093407761
 10
294.718306094
 20
364.258078371
 10
294.553458382
 20
364.439781834
 10
294.407214511
 20
364.636768247
 10
291.548446831
 20
368.910708033
 10
291.482930583
 20
369.014041938
 10
288.067195163
 20
374.704739602
 10
285.887193522
 20
376.152194178
 10
273.780927994
 20
374.330077903
 10
273.551714239
 20
374.306319205
 10
266.113118943
 20
373.880519991
 10
262.003985257
 20
372.78066763
 10
259.32165237
 20
369.545088463
 10
259.165428889
 20
369.373515882
 10
255.864335278
 20
366.070004056
 10
252.997823254
 20
359.760445169
  0
LWPOLYLINE
  5
640
330
1F
100
AcDbEntity
  8
outline
 67
0
100
AcDbPolyline
 90
26
 70
0
 10
419.284794962
 20
346.684773299
 10
419.284801268
 20
346.684769552
 10
423.482742439
 20
343.903113652
 10
423.483285728
 20
343.902713954
 10
423.483865392
 20
343.902369121
 10
429.732277186
 20
339.757174677
 10
460.342759703
 20
331.388557711
 10
487.396309761
 20
328.253013435
 10
490.23346584
 20
336.482956699
 10
478.123363092
 20
341.191752311
 10
475.277717597
 20
342.293322503
 10
452.450146455
 20
350.543798204
 10
452.397412482
 20
350.565839644
 10
452.343595243
 20
350.585085471
 10
448.767424317
 20
352.065673905
 10
436.426021056
 20
357.150607915
 10
436.420716412
 20
357.152800674
 10
431.686260734
 20
359.116229957
 10
431.667421581
 20
359.125149995
 10
431.647918685
 20
359.132506478
 10
424.621811401
 20
362.184476321
 10
420.625016829
 20
363.698894434
 10
411.259652283
 20
364.054432953
 10
413.201842325
 20
350.715431859
 10
419.284789053
 20
346.684777646
 10
419.284794962
 20
346.684773299
  0
LWPOLYLINE
  5
641
330
1F
100
AcDbEntity
  8
outline
 67
0
100
AcDbPolyline
 90
10
 70
0
 10
404.928573776
 20
370.558467263
 10
404.559734297
 20
372.220717594
 10
396.229719721
 20
387.326845492
 10
387.045175733
 20
399.361080212
 10
371.116393677
 20
417.471632012
 10
361.593778566
 20
425.333207881
 10
351.609001199
 20
390.067431949
 10
357.247108125
 20
387.743626063
 10
395.517975728
 20
373.950782101
 10
404.928573776
 20
370.558467263
  0
LWPOLYLINE
  5
642
330
1F
100
AcDbEntity
  8
outline
 67
0
100
AcDbPolyline
 90
25
 70
0
 10
360.892685254
 20
432.109719089
 10
360.919363597
 20
432.101192385
 10
360.964426675
 20
432.089764963
 10
361.036143593
 20
432.063868163
 10
361.108773485
 20
432.040654819
 10
424.167230234
 20
408.417671239
 10
425.039449903
 20
420.173621221
 10
425.127991695
 20
420.67265665
 10
429.550931514
 20
436.22125796
 10
429.886345136
 20
436.940258942
 10
436.578381122
 20
446.809810963
 10
439.908704926
 20
457.008117063
 10
423.056233927
 20
467.125079632
 10
422.976989296
 20
467.177077829
 10
422.933051726
 20
467.204022375
 10
422.914435727
 20
467.218123799
 10
422.888879038
 20
467.234893412
 10
399.884645706
 20
483.683767271
 10
391.802241968
 20
489.466796749
 10
368.764157446
 20
505.949481217
 10
351.430359529
 20
466.556908948
 10
350.954183007
 20
465.841501864
 10
327.568793326
 20
441.237046214
 10
360.892104721
 20
432.110747783
 10
360.892685254
 20
432.109719089
  0
LWPOLYLINE
  5
643
330
1F
100
AcDbEntity
  8
outline
 67
0
100
AcDbPolyline
 90
19
 70
0
 10
439.782461408
 20
442.62585539
 10
434.250212533
 20
434.466781204
 10
430.006897264
 20
419.549640107
 10
429.045460618
 20
406.591205997
 10
436.646652966
 20
403.748058115
 10
441.283658517
 20
402.237481687
 10
441.366734679
 20
402.20583053
 10
441.450636368
 20
402.176437487
 10
441.481310951
 20
402.162178156
 10
441.512921374
 20
402.150134913
 10
441.592495146
 20
402.110493277
 10
441.673111803
 20
402.073017965
 10
445.806408997
 20
399.898915149
 10
455.459003824
 20
435.628881643
 10
448.702886493
 20
439.033018564
 10
444.26204456
 20
440.821179389
 10
444.261844679
 20
440.821271516
 10
444.261636743
 20
440.821343643
 10
439.782461408
 20
442.62585539
  0
LWPOLYLINE
  5
644
330
1F
100
AcDbEntity
  8
outline
 67
0
100
AcDbPolyline
 90
5
 70
0
 10
460.243729728
 20
434.168532475
 10
450.433051186
 20
397.853404588
 10
459.759183961
 20
394.721062414
 10
471.169178732
 20
432.669271994
 10
460.243729728
 20
434.168532475
  0
LWPOLYLINE
  5
645
330
1F
100
AcDbEntity
  8
outline
 67
0
100
AcDbPolyline
 90
5
 70
0
 10
476.183231531
 20
431.980589498
 10
464.501354593
 20
393.128133974
 10
475.071353043
 20
389.57714853
 10
486.366876161
 20
430.580134846
 10
476.183231531
 20
431.980589498
  0
LWPOLYLINE
  5
646
330
1F
100
AcDbEntity
  8
outline
 67
0
100
AcDbPolyline
 90
6
 70
0
 10
491.363792197
 20
429.892831583
 10
479.791090145
 20
387.883679907
 10
489.035123644
 20
384.317083358
 10
492.137457105
 20
394.457878904
 10
501.54877388
 20
428.491594686
 10
491.363792197
 20
429.892831583
  0
LWPOLYLINE
  5
647
330
1F
100
AcDbEntity
  8
outline
 67
0
100
AcDbPolyline
 90
18
 70
0
 10
506.546529755
 20
427.804890032
 10
496.947566845
 20
393.092598087
 10
496.92862913
 20
393.027557945
 10
493.789931646
 20
382.767896994
 10
499.875912036
 20
381.150539055
 10
500.075287762
 20
381.54040868
 10
500.962683338
 20
382.513672867
 10
503.601890157
 20
384.186586784
 10
505.371809041
 20
384.537534932
 10
506.178609646
 20
384.396166116
 10
511.171638558
 20
402.427145246
 10
511.173439978
 20
402.433616768
 10
516.757790682
 20
422.391330264
 10
516.104390721
 20
423.017201838
 10
514.522977029
 20
425.649009452
 10
514.172839177
 20
426.750132361
 10
514.172186216
 20
426.758860292
 10
506.546529755
 20
427.804890032
  0
LWPOLYLINE
  5
648
330
1F
100
AcDbEntity
  8
outline
 67
0
100
AcDbPolyline
 90
31
 70
0
 10
514.780361086
 20
431.72225693
 10
514.849989687
 20
431.937417684
 10
515.665504783
 20
433.118819625
 10
518.121226088
 20
435.086082905
 10
520.166929533
 20
435.587916901
 10
523.163397479
 20
434.998308056
 10
523.390219904
 20
434.855609054
 10
524.108071765
 20
436.757180063
 10
524.415018647
 20
437.330672285
 10
526.381392584
 20
440.074058659
 10
525.09712103
 20
440.213427731
 10
524.943702306
 20
440.234904614
 10
492.339156636
 20
445.834138287
 10
492.267115225
 20
445.847600043
 10
461.163899917
 20
452.132755166
 10
456.362117185
 20
453.099979044
 10
456.360077464
 20
453.100495218
 10
456.357997502
 20
453.100812476
 10
451.299863729
 20
454.128525256
 10
445.05951178
 20
455.388886388
 10
444.653538932
 20
455.431018238
 10
441.947414956
 20
447.144172186
 10
446.129842924
 20
445.459210148
 10
450.667858717
 20
443.631921046
 10
450.763113715
 20
443.588017363
 10
450.858984374
 20
443.545474858
 10
459.156777557
 20
439.364549224
 10
474.744837519
 20
437.225455236
 10
489.875753483
 20
435.144652012
 10
505.060037155
 20
433.055617274
 10
514.780361086
 20
431.72225693
  0
LWPOLYLINE
  5
649
330
1F
100
AcDbEntity
  8
outline
 67
0
100
AcDbPolyline
 90
19
 70
0
 10
526.88597018
 20
429.958550973
 10
526.912069777
 20
429.640939436
 10
536.585033354
 20
429.37072156
 10
554.021532812
 20
428.891988041
 10
554.037826258
 20
428.891487526
 10
572.881284146
 20
428.251140329
 10
590.009461129
 20
427.674008668
 10
590.031442981
 20
427.673171156
 10
612.586550407
 20
426.714424655
 10
613.883932518
 20
433.425885708
 10
613.890007885
 20
436.35868619
 10
611.841982512
 20
439.120489128
 10
572.610460302
 20
435.334831341
 10
572.172624713
 20
435.331103139
 10
544.086555252
 20
437.559270704
 10
543.906260997
 20
437.580183461
 10
532.045944375
 20
439.394354103
 10
528.670004689
 20
434.684412236
 10
526.88597018
 20
429.958550973
  0
LWPOLYLINE
  5
64A
330
1F
100
AcDbEntity
  8
outline
 67
0
100
AcDbPolyline
 90
301
 70
0
 10
617.168322438
 20
424.072059232
 10
618.937179759
 20
412.292039109
 10
618.939312361
 20
412.277547698
 10
620.184646521
 20
403.639681227
 10
621.278990942
 20
400.420008462
 10
620.954248191
 20
398.173553233
 10
613.444175208
 20
387.536685611
 10
613.293007743
 20
387.343451778
 10
613.123627963
 20
387.165965422
 10
612.937667088
 20
387.005935832
 10
612.736916022
 20
386.864904182
 10
612.523308109
 20
386.744228683
 10
612.298900509
 20
386.645071507
 10
612.06585439
 20
386.56838759
 10
611.826414114
 20
386.514915442
 10
611.582885621
 20
386.485170028
 10
611.337614223
 20
386.479437813
 10
611.092962019
 20
386.497774001
 10
610.851285144
 20
386.540002004
 10
610.614911076
 20
386.605715144
 10
610.386116229
 20
386.694280568
 10
610.16710402
 20
386.804845342
 10
609.959983658
 20
386.936344667
 10
609.766749826
 20
387.087512132
 10
609.589263469
 20
387.256891911
 10
609.42923388
 20
387.442852787
 10
609.28820223
 20
387.643603852
 10
609.167526731
 20
387.857211765
 10
609.068369554
 20
388.081619365
 10
608.991685638
 20
388.314665484
 10
608.93821349
 20
388.554105761
 10
608.908468076
 20
388.797634254
 10
608.90273586
 20
389.042905651
 10
608.921072048
 20
389.287557855
 10
608.963300052
 20
389.529234731
 10
609.029013192
 20
389.765608798
 10
609.117578616
 20
389.994403646
 10
609.22814339
 20
390.213415854
 10
609.359642714
 20
390.420536216
 10
616.135077813
 20
400.016901843
 10
615.376216525
 20
402.249549057
 10
615.268809158
 20
402.697338666
 10
613.991524706
 20
411.556818234
 10
612.466194596
 20
421.71502556
 10
589.830089577
 20
422.677215013
 10
574.650297095
 20
423.188696116
 10
557.243123179
 20
363.814003281
 10
558.084648517
 20
363.643591929
 10
558.088823216
 20
363.642742836
 10
563.609947806
 20
362.514901311
 10
574.942909223
 20
363.858789513
 10
577.236648404
 20
374.315931642
 10
574.259188212
 20
379.469531451
 10
573.924312139
 20
380.766501685
 10
573.988445207
 20
384.226466895
 10
574.179924709
 20
385.140716169
 10
577.553583441
 20
393.246970864
 10
577.429824329
 20
400.387441479
 10
576.864662205
 20
405.439450096
 10
577.175594778
 20
406.952538469
 10
577.890648788
 20
408.210862885
 10
579.887381166
 20
409.469450651
 10
591.166919388
 20
410.269310405
 10
592.533965186
 20
409.974072735
 10
597.17710666
 20
407.460401174
 10
597.966551077
 20
406.788653544
 10
600.124804708
 20
403.990168964
 10
600.631868096
 20
402.720789503
 10
601.218801769
 20
397.049887921
 10
600.987942998
 20
395.714968605
 10
599.917604052
 20
393.474199317
 10
599.796896067
 20
393.251308865
 10
598.348861281
 20
390.873821921
 10
597.740528704
 20
390.194655256
 10
591.827048828
 20
385.633740097
 10
588.487942968
 20
378.806386025
 10
588.357564043
 20
378.572454422
 10
586.54587595
 20
375.695869034
 10
585.55982644
 20
374.797801605
 10
582.074056645
 20
373.032752045
 10
579.445684178
 20
361.050018923
 10
579.443337876
 20
361.047891763
 10
579.394475366
 20
360.854639757
 10
578.10257776
 20
356.629554463
 10
578.098230033
 20
356.615483791
 10
576.012382024
 20
349.934820679
 10
575.171825797
 20
347.214008878
 10
574.24649548
 20
343.893385703
 10
573.557378299
 20
342.7493681
 10
565.987304656
 20
335.57956913
 10
563.42654558
 20
335.040599851
 10
561.440647036
 20
335.750601033
 10
557.816917778
 20
331.446218838
 10
555.10576839
 20
330.687295107
 10
548.731538346
 20
332.836208831
 10
548.723835518
 20
332.838819609
 10
548.009497285
 20
333.082231979
 10
544.73739551
 20
322.207794654
 10
544.735279737
 20
322.201839379
 10
544.733726911
 20
322.195713162
 10
544.69421778
 20
322.086262115
 10
544.655261932
 20
321.976612924
 10
544.652572628
 20
321.970893708
 10
544.650426805
 20
321.964949194
 10
544.600379842
 20
321.859897756
 10
544.550864077
 20
321.754594897
 10
544.547627142
 20
321.749166817
 10
544.544908987
 20
321.743461256
 10
544.484806173
 20
321.643821129
 10
544.425207355
 20
321.543878726
 10
544.421453961
 20
321.538794059
 10
544.418189653
 20
321.533382397
 10
544.34860981
 20
321.440113171
 10
544.279501907
 20
321.346493723
 10
544.275268203
 20
321.341801438
 10
544.271489177
 20
321.336735792
 10
544.193102398
 20
321.2507357
 10
544.115150958
 20
321.164340815
 10
544.110477716
 20
321.1600861
 10
544.106220367
 20
321.155415256
 10
544.019781558
 20
321.077512526
 10
543.933737296
 20
320.999174232
 10
543.928669522
 20
320.995398063
 10
543.923974851
 20
320.991167004
 10
543.830316465
 20
320.922111881
 10
543.737008035
 20
320.852584621
 10
543.731594534
 20
320.849323363
 10
543.726507752
 20
320.845572836
 10
543.626531772
 20
320.78603036
 10
543.526857784
 20
320.725983718
 10
543.521150691
 20
320.72326878
 10
543.515720788
 20
320.720034904
 10
543.410390036
 20
320.670578501
 10
543.305310406
 20
320.620590759
 10
543.299364683
 20
320.618448287
 10
543.293643952
 20
320.615762207
 10
543.183972821
 20
320.576868169
 10
543.074499522
 20
320.537420737
 10
543.068372431
 20
320.535871364
 10
543.062415964
 20
320.533758948
 10
542.949460648
 20
320.505801846
 10
542.836647968
 20
320.477274624
 10
542.830398516
 20
320.476333272
 10
542.824263678
 20
320.474814864
 10
542.709111997
 20
320.45806394
 10
542.594046384
 20
320.44073166
 10
542.587734756
 20
320.440407394
 10
542.58148063
 20
320.439497617
 10
542.465241558
 20
320.434114192
 10
542.349031157
 20
320.428143774
 10
542.342718137
 20
320.428439718
 10
542.336404952
 20
320.428147333
 10
542.220197935
 20
320.434183252
 10
542.103961916
 20
320.439632194
 10
542.097708303
 20
320.440545497
 10
542.091396859
 20
320.44087332
 10
541.976341034
 20
320.458270454
 10
541.861198813
 20
320.475086281
 10
541.855064832
 20
320.476608146
 10
541.848815911
 20
320.477553021
 10
541.736019329
 20
320.506143826
 10
541.623079788
 20
320.534164591
 10
541.617124513
 20
320.536280364
 10
541.610998296
 20
320.53783319
 10
526.389657829
 20
325.201875332
 10
517.676783999
 20
327.873435412
 10
509.65031429
 20
306.37423594
 10
508.153476955
 20
304.895860225
 10
492.490099741
 20
299.268593043
 10
491.980706152
 20
299.144028276
 10
476.759701387
 20
297.080413231
 10
461.024736675
 20
269.861981283
 10
460.477755879
 20
269.206870724
 10
457.255028448
 20
266.472620021
 10
468.476770054
 20
249.684775163
 10
494.642123445
 20
232.816644585
 10
496.182195295
 20
231.990402229
 10
496.197369398
 20
231.981275377
 10
496.213255918
 20
231.97345417
 10
498.601917155
 20
230.648071975
 10
498.678434956
 20
230.600560828
 10
498.756167086
 20
230.555063586
 10
498.782599993
 20
230.535883062
 10
498.810345324
 20
230.518655536
 10
498.881837765
 20
230.463873111
 10
498.954736083
 20
230.41097587
 10
513.642258863
 20
218.611067592
 10
514.737287666
 20
217.742312614
 10
514.743756089
 20
217.736642023
 10
514.750714578
 20
217.731584797
 10
518.494955447
 20
214.718872013
 10
518.499486082
 20
214.71521785
 10
519.922451516
 20
213.564794968
 10
521.091260984
 20
215.361540851
 10
521.183874536
 20
215.489683386
 10
521.18120415
 20
215.493933058
 10
549.509876712
 20
255.448689499
 10
559.814924059
 20
274.165675437
 10
573.689601327
 20
299.354981407
 10
609.271702747
 20
366.33283774
 10
609.650241574
 20
366.916451712
 10
640.677119852
 20
406.691577228
 10
640.684493503
 20
406.701000835
 10
669.10517347
 20
442.911213433
 10
689.285469242
 20
476.83939708
 10
689.362772285
 20
476.96409938
 10
710.445641211
 20
509.621126433
 10
732.754837489
 20
544.124087289
 10
733.095668085
 20
544.577200506
 10
767.265314711
 20
583.864712608
 10
784.894619292
 20
606.969243031
 10
800.131655363
 20
630.834584529
 10
804.345274875
 20
638.908488379
 10
804.724871818
 20
639.501810867
 10
806.405562332
 20
641.67939019
 10
800.788140447
 20
646.871745486
 10
800.779464094
 20
646.88330749
 10
800.723547203
 20
646.933630368
 10
800.558149411
 20
647.114833257
 10
800.411309044
 20
647.311375424
 10
800.284440255
 20
647.521364059
 10
800.256108871
 20
647.580724433
 10
800.248111385
 20
647.591381788
 10
793.835899896
 20
660.441783119
 10
786.721040709
 20
674.703250248
 10
780.526132928
 20
681.261607619
 10
778.718696912
 20
679.820284996
 10
772.15398584
 20
674.51435604
 10
771.829498526
 20
674.017910633
 10
774.288519377
 20
672.65311272
 10
774.6589501
 20
672.401668148
 10
791.654148517
 20
658.488532319
 10
792.457583933
 20
657.296970371
 10
795.209086764
 20
648.455727359
 10
795.313486189
 20
647.919148479
 10
795.793999568
 20
642.116229063
 10
795.718758409
 20
641.268186223
 10
792.456392491
 20
628.984878536
 10
791.989731018
 20
628.061629555
 10
770.36519444
 20
601.122986038
 10
770.300646607
 20
601.045810019
 10
729.675028796
 20
554.411994083
 10
711.721450824
 20
532.875769846
 10
711.556154446
 20
532.696104766
 10
683.899602779
 20
505.435929141
 10
687.42408973
 20
501.982268529
 10
696.939336136
 20
495.37108278
 10
697.133704624
 20
495.221377044
 10
697.312463447
 20
495.05334074
 10
697.47389106
 20
494.868592147
 10
697.616432825
 20
494.668910496
 10
697.738715989
 20
494.456218831
 10
697.839562897
 20
494.232565488
 10
697.918002339
 20
494.000104372
 10
697.973278899
 20
493.761074209
 10
698.004860235
 20
493.517776992
 10
698.0124422
 20
493.272555806
 10
697.995951777
 20
493.027772263
 10
697.955547777
 20
492.785783765
 10
697.891619312
 20
492.548920792
 10
697.804782049
 20
492.319464464
 10
697.695872279
 20
492.099624571
 10
697.565938861
 20
491.891518292
 10
697.416233125
 20
491.697149803
 10
697.24819682
 20
491.51839098
 10
697.063448228
 20
491.356963368
 10
696.863766577
 20
491.214421602
 10
696.651074912
 20
491.092138438
 10
696.427421569
 20
490.99129153
 10
696.194960452
 20
490.912852089
 10
695.95593029
 20
490.857575528
 10
695.712633073
 20
490.825994193
 10
695.467411886
 20
490.818412227
 10
695.222628344
 20
490.834902651
 10
694.980639846
 20
490.875306651
 10
694.743776873
 20
490.939235116
 10
694.514320545
 20
491.026072378
 10
694.294480652
 20
491.134982149
 10
694.086374373
 20
491.264915567
 10
684.398239627
 20
497.996223999
 10
684.329076653
 20
498.049494434
 10
684.258432598
 20
498.100784528
 10
684.231940504
 20
498.124310258
 10
684.203871138
 20
498.145929734
 10
684.140262619
 20
498.205722814
 10
684.074986043
 20
498.263690261
 10
680.639846806
 20
501.629798647
 10
670.754885369
 20
488.197437501
 10
658.52750382
 20
471.077565641
 10
658.181780624
 20
470.687103473
 10
645.059570631
 20
458.666784919
 10
638.463353297
 20
451.489545996
 10
637.809737637
 20
450.981048778
 10
626.574778255
 20
444.919356033
 10
626.383352577
 20
444.82636699
 10
616.891589411
 20
440.705196994
 10
618.39983095
 20
438.671303289
 10
618.891713773
 20
437.17700161
 10
618.88343124
 20
433.178722102
 10
618.837996039
 20
432.70941383
 10
617.168322438
 20
424.072059232
  0
LWPOLYLINE
  5
64B
330
1F
100
AcDbEntity
  8
outline
 67
0
100
AcDbPolyline
 90
11
 70
0
 10
526.841364687
 20
209.529805711
 10
526.377412086
 20
208.816597146
 10
528.873011578
 20
207.163717803
 10
551.860792217
 20
191.963439443
 10
568.302291841
 20
226.582428912
 10
551.620183002
 20
221.207456565
 10
539.760445291
 20
214.578766848
 10
539.737265152
 20
214.565911526
 10
532.84560927
 20
210.773715165
 10
531.586086867
 20
210.33451174
 10
526.841364687
 20
209.529805711
  0
LWPOLYLINE
  5
64C
330
1F
100
AcDbEntity
  8
outline
 67
0
100
AcDbPolyline
 90
108
 70
0
 10
574.83757105
 20
228.68809465
 10
555.249075609
 20
187.442835223
 10
552.37189519
 20
175.90558725
 10
551.467483924
 20
164.400542816
 10
552.6192182
 20
155.085731417
 10
555.409603356
 20
139.347164695
 10
560.270668461
 20
123.460413895
 10
566.586119362
 20
109.222595316
 10
568.60665415
 20
104.657960973
 10
575.474666797
 20
91.3758327297
 10
580.556572076
 20
85.4865080892
 10
584.277671487
 20
85.9271612636
 10
587.773036214
 20
87.8314862548
 10
589.298509807
 20
90.2724742909
 10
590.317794652
 20
99.2680223747
 10
590.659570104
 20
100.275124886
 10
594.587371496
 20
106.805310209
 10
595.791750478
 20
107.834114195
 10
600.135780121
 20
109.592341343
 10
600.989594613
 20
109.773545075
 10
601.480312501
 20
109.790069066
 10
601.600529337
 20
114.439899881
 10
601.618896726
 20
114.684549745
 10
601.661155552
 20
114.926221233
 10
601.726898837
 20
115.162586918
 10
601.81549344
 20
115.391370468
 10
601.926086144
 20
115.610368574
 10
602.057611883
 20
115.817472164
 10
602.20880399
 20
116.010686716
 10
602.378206405
 20
116.188151469
 10
602.564187687
 20
116.348157341
 10
602.764956738
 20
116.489163387
 10
602.978580039
 20
116.609811643
 10
603.203000284
 20
116.708940198
 10
603.436056181
 20
116.785594393
 10
603.675503275
 20
116.839036004
 10
603.919035559
 20
116.868750359
 10
604.164307685
 20
116.874451294
 10
604.408957549
 20
116.856083904
 10
604.650629037
 20
116.813825079
 10
604.886994722
 20
116.748081793
 10
605.115778273
 20
116.659487191
 10
605.334776378
 20
116.548894487
 10
605.541879968
 20
116.417368748
 10
605.73509452
 20
116.26617664
 10
605.912559273
 20
116.096774226
 10
606.072565145
 20
115.910792943
 10
606.213571191
 20
115.710023893
 10
606.334219447
 20
115.496400591
 10
606.433348003
 20
115.271980347
 10
606.510002197
 20
115.03892445
 10
606.563443808
 20
114.799477356
 10
606.593158163
 20
114.555945072
 10
606.598859098
 20
114.310672945
 10
606.486296006
 20
109.956878996
 10
607.394183298
 20
109.986848828
 10
607.482173917
 20
109.985433025
 10
607.570169926
 20
109.986460549
 10
615.56832182
 20
109.68710217
 10
616.458598373
 20
130.80119595
 10
616.464771326
 20
130.911428133
 10
621.630867602
 20
204.865498155
 10
621.633686492
 20
204.940182508
 10
613.689043462
 20
212.297818579
 10
611.870141281
 20
213.975340003
 10
611.772089374
 20
214.070869102
 10
604.771943305
 20
221.274868108
 10
599.559199511
 20
214.46224379
 10
598.746660966
 20
197.106924373
 10
598.72317613
 20
196.862712622
 10
598.675867443
 20
196.621978735
 10
598.605190513
 20
196.387041109
 10
598.511825997
 20
196.160162322
 10
598.396673047
 20
195.943527342
 10
598.260840648
 20
195.739222481
 10
598.105636942
 20
195.549215307
 10
597.932556624
 20
195.375335693
 10
597.743266553
 20
195.219258195
 10
597.539589695
 20
195.082485924
 10
597.323487569
 20
194.966336072
 10
597.097041359
 20
194.871927226
 10
596.862431863
 20
194.800168594
 10
596.621918501
 20
194.751751251
 10
596.377817546
 20
194.727141484
 10
596.132479826
 20
194.726576296
 10
595.888268075
 20
194.750061132
 10
595.647534187
 20
194.797369819
 10
595.412596561
 20
194.868046749
 10
595.185717775
 20
194.961411265
 10
594.969082795
 20
195.076564215
 10
594.764777934
 20
195.212396613
 10
594.57477076
 20
195.36760032
 10
594.400891146
 20
195.540680638
 10
594.244813648
 20
195.729970709
 10
594.108041377
 20
195.933647567
 10
593.991891525
 20
196.149749692
 10
593.897482679
 20
196.376195903
 10
593.825724047
 20
196.610805399
 10
593.777306704
 20
196.851318761
 10
593.752696936
 20
197.095419715
 10
593.752131749
 20
197.340757436
 10
594.601243888
 20
215.477266155
 10
595.113048524
 20
216.87954306
 10
601.249852298
 20
224.899837222
 10
585.312163151
 20
241.304942088
 10
577.146516829
 20
230.224070711
 10
575.153101413
 20
228.789758474
 10
574.83757105
 20
228.68809465
  0
LWPOLYLINE
  5
64D
330
1F
100
AcDbEntity
  8
outline
 67
0
100
AcDbPolyline
 90
43
 70
0
 10
580.832510652
 20
248.703169482
 10
580.891239705
 20
248.782802641
 10
580.956483436
 20
248.855177779
 10
581.018068868
 20
248.930690293
 10
581.087820456
 20
249.000870472
 10
581.154072128
 20
249.074363722
 10
595.928398126
 20
263.92827971
 10
596.041025405
 20
264.037163802
 10
612.063472908
 20
278.931278857
 10
612.163824107
 20
279.015774505
 10
612.261369802
 20
279.10349403
 10
642.564554277
 20
303.775456429
 10
642.654707523
 20
303.846727678
 10
663.206294342
 20
319.619516862
 10
670.015698924
 20
330.09629003
 10
675.474682148
 20
341.585522761
 10
690.247786915
 20
376.773273338
 10
690.407297042
 20
377.108667327
 10
704.941371641
 20
404.332951717
 10
705.646488605
 20
406.080173322
 10
703.001361897
 20
403.184803101
 10
702.849219732
 20
403.032050097
 10
691.638243487
 20
392.707309905
 10
679.57525277
 20
375.02193771
 10
677.037478624
 20
359.833117662
 10
676.946206458
 20
359.463107667
 10
670.247964553
 20
339.123949808
 10
669.48052803
 20
337.990960175
 10
651.911770151
 20
323.246818548
 10
651.061272702
 20
322.779053008
 10
626.661706306
 20
315.031302657
 10
598.325192093
 20
295.790598864
 10
568.207355311
 20
272.820604395
 10
566.822777356
 20
270.306920157
 10
556.408338289
 20
251.3912468
 10
556.167363873
 20
251.006901785
 10
534.927805845
 20
221.050631647
 10
535.868909607
 20
221.568482556
 10
548.06383296
 20
228.384515506
 10
548.788687411
 20
228.700148564
 10
571.471680516
 20
236.008604698
 10
580.769973797
 20
248.626490388
 10
580.832510652
 20
248.703169482
  0
LWPOLYLINE
  5
64E
330
1F
100
AcDbEntity
  8
outline
 67
0
100
AcDbPolyline
 90
73
 70
0
 10
617.414124808
 20
272.982518644
 10
601.545180489
 20
258.231096775
 10
588.541026946
 20
245.156889245
 10
606.339540852
 20
226.836385899
 10
615.310277028
 20
217.604410758
 10
617.080748797
 20
215.971555318
 10
617.084552691
 20
215.968039796
 10
621.882218858
 20
211.524859465
 10
622.170664317
 20
219.167003614
 10
623.083169935
 20
221.562690463
 10
636.742320694
 20
238.108048622
 10
637.006780217
 20
238.398134656
 10
637.298399699
 20
238.66090228
 10
637.614370685
 20
238.893820899
 10
637.951650201
 20
239.094647378
 10
638.00784059
 20
239.121023738
 10
642.527758173
 20
261.058807085
 10
632.687218737
 20
269.598433258
 10
632.607352233
 20
269.674926117
 10
632.526749324
 20
269.750642608
 10
632.518780089
 20
269.759756879
 10
632.510036494
 20
269.768131136
 10
632.43805218
 20
269.852083946
 10
632.36525891
 20
269.935336309
 10
632.358221405
 20
269.945187813
 10
632.350340733
 20
269.954378768
 10
632.286931858
 20
270.04498302
 10
632.222649266
 20
270.134969487
 10
632.216611264
 20
270.14546335
 10
632.209669411
 20
270.155382488
 10
632.155446636
 20
270.251765613
 10
632.100293799
 20
270.347619566
 10
632.09531345
 20
270.358654726
 10
632.08937727
 20
270.369206522
 10
632.044862791
 20
270.470440296
 10
631.99937086
 20
270.571238611
 10
631.995496128
 20
270.582708793
 10
631.990622788
 20
270.593791626
 10
631.956245304
 20
270.698901114
 10
631.920852391
 20
270.803673046
 10
631.918120592
 20
270.815467786
 10
631.914357026
 20
270.826974924
 10
631.89044761
 20
270.934947863
 10
631.86549457
 20
271.042684402
 10
631.863932011
 20
271.05469011
 10
631.861314465
 20
271.066510731
 10
631.848103378
 20
271.176307285
 10
631.83383052
 20
271.285970868
 10
631.833452251
 20
271.298071923
 10
631.832005933
 20
271.310092189
 10
631.829620405
 20
271.420654955
 10
631.826165186
 20
271.531189463
 10
631.826974849
 20
271.543269325
 10
631.826713687
 20
271.555373474
 10
631.835176693
 20
271.665637673
 10
631.842572388
 20
271.775978597
 10
631.844562186
 20
271.787920931
 10
631.845488695
 20
271.799992393
 10
631.86471873
 20
271.90889612
 10
631.882894115
 20
272.017980818
 10
631.886044885
 20
272.029670612
 10
631.888150144
 20
272.041593133
 10
631.917962013
 20
272.148087585
 10
631.946742048
 20
272.254865511
 10
631.951023446
 20
272.266190186
 10
631.954287179
 20
272.277848946
 10
631.994393777
 20
272.380908524
 10
632.033501296
 20
272.484351349
 10
634.104337106
 20
277.2419368
 10
625.699590226
 20
272.96648265
 10
624.360520418
 20
272.703212376
 10
617.741781948
 20
273.249287459
 10
617.414124808
 20
272.982518644
  0
LWPOLYLINE
  5
64F
330
1F
100
AcDbEntity
  8
outline
 67
0
100
AcDbPolyline
 90
49
 70
0
 10
641.235961779
 20
281.098174089
 10
637.350563758
 20
272.171772002
 10
646.910209503
 20
263.875905546
 10
646.980159234
 20
263.808910567
 10
647.051478962
 20
263.743375931
 10
647.06871485
 20
263.724095633
 10
647.087391746
 20
263.706207669
 10
647.150437993
 20
263.632679016
 10
647.21499078
 20
263.560469392
 10
647.230253872
 20
263.539592522
 10
647.247087507
 20
263.519960037
 10
647.302623101
 20
263.440605832
 10
647.359787268
 20
263.362416637
 10
647.372930573
 20
263.34014425
 10
647.387758829
 20
263.318956316
 10
647.435248931
 20
263.234540783
 10
647.484473956
 20
263.151125023
 10
647.495370897
 20
263.127671614
 10
647.50805097
 20
263.105132283
 10
647.547038226
 20
263.016468389
 10
647.587850044
 20
262.928629403
 10
647.596395677
 20
262.904220841
 10
647.606805452
 20
262.880547179
 10
647.636914392
 20
262.788488807
 10
647.668919963
 20
262.697072531
 10
647.67503199
 20
262.671943885
 10
647.683071214
 20
262.647363881
 10
647.704011872
 20
262.552797603
 10
647.726902967
 20
262.458684427
 10
647.730522524
 20
262.4330777
 10
647.736113775
 20
262.407828073
 10
647.747684483
 20
262.311664615
 10
647.761240646
 20
262.2157609
 10
647.762332876
 20
262.189922696
 10
647.765422307
 20
262.164246616
 10
647.767511631
 20
262.067412083
 10
647.77160231
 20
261.970641434
 10
647.770156694
 20
261.944820591
 10
647.770714553
 20
261.918965331
 10
647.763302372
 20
261.822392293
 10
647.757888171
 20
261.725686665
 10
647.753918631
 20
261.700131852
 10
647.751939545
 20
261.674346412
 10
647.735097243
 20
261.57896492
 10
647.720230303
 20
261.48325564
 10
644.494844427
 20
245.828586
 10
656.796602798
 20
262.003079564
 10
648.723049786
 20
287.479428672
 10
641.235961779
 20
281.098174089
  0
LWPOLYLINE
  5
650
330
1F
100
AcDbEntity
  8
outline
 67
0
100
AcDbPolyline
 90
17
 70
0
 10
653.732037081
 20
291.749071246
 10
653.528181628
 20
288.867649813
 10
660.498995597
 20
266.871028251
 10
672.048275835
 20
282.056154901
 10
673.481857645
 20
284.097362562
 10
698.158731567
 20
319.243355479
 10
700.878493108
 20
323.109575601
 10
705.21509484
 20
331.074905664
 10
717.529693082
 20
353.660483547
 10
718.875993286
 20
354.815269907
 10
732.699378252
 20
359.803884518
 10
741.448419842
 20
379.657565886
 10
740.608213226
 20
383.819972293
 10
733.504425301
 20
389.756656908
 10
679.812634738
 20
314.093279717
 10
679.396125473
 20
313.637936354
 10
653.732037081
 20
291.749071246
  0
LWPOLYLINE
  5
651
330
1F
100
AcDbEntity
  8
outline
 67
0
100
AcDbPolyline
 90
90
 70
0
 10
27.415742568
 20
314.106676717
 10
28.7167180134
 20
268.372797323
 10
53.3265101113
 20
260.373761124
 10
71.0225928452
 20
256.009173162
 10
72.1520916423
 20
255.388414437
 10
85.4675485603
 20
242.650398147
 10
95.4249505613
 20
237.486245708
 10
109.238488376
 20
248.397866125
 10
109.310890712
 20
248.449497801
 10
109.381871432
 20
248.503067061
 10
109.410717657
 20
248.520686561
 10
109.438238334
 20
248.540312152
 10
109.515352823
 20
248.584598538
 10
109.591242457
 20
248.63095252
 10
109.621676793
 20
248.645659753
 10
109.650988594
 20
248.662493344
 10
109.73207258
 20
248.699007937
 10
109.81214027
 20
248.737700227
 10
109.843869617
 20
248.749353554
 10
109.874690254
 20
248.763233027
 10
109.958962855
 20
248.791624172
 10
110.042437504
 20
248.822282142
 10
110.075156291
 20
248.830769335
 10
110.107188945
 20
248.841561024
 10
110.193838569
 20
248.861555299
 10
110.279916272
 20
248.883883696
 10
110.3133094
 20
248.889123019
 10
110.346245578
 20
248.896722994
 10
110.434437742
 20
248.908127842
 10
110.522289523
 20
248.921911632
 10
110.556035397
 20
248.923852627
 10
110.589557907
 20
248.928187696
 10
110.678443271
 20
248.930893283
 10
110.76722307
 20
248.93599972
 10
114.89300328
 20
248.970522217
 10
114.933080476
 20
248.968889368
 10
114.973178001
 20
248.969907362
 10
130.360367346
 20
248.605087337
 10
130.395000777
 20
248.602561829
 10
130.429726069
 20
248.60247913
 10
147.960206695
 20
247.699407292
 10
154.104965016
 20
262.675771907
 10
156.555011851
 20
278.117192837
 10
158.855581865
 20
279.873090571
 10
155.905673174
 20
291.054419425
 10
147.341629823
 20
302.19723046
 10
147.287564752
 20
302.269238573
 10
137.206401269
 20
316.0156915
 10
125.982181431
 20
323.992365253
 10
98.4640026939
 20
337.970819171
 10
68.3458842169
 20
340.542654315
 10
55.8015112543
 20
339.617530157
 10
48.8672891196
 20
337.292969962
 10
52.1230318917
 20
328.615581928
 10
52.1978411346
 20
328.381927281
 10
52.2493879902
 20
328.142065158
 10
52.2771760342
 20
327.898305561
 10
52.2809376526
 20
327.652996028
 10
52.2606366188
 20
327.408499025
 10
52.216468443
 20
327.16716919
 10
52.1488584888
 20
326.931330664
 10
52.058457877
 20
326.703254698
 10
51.946137215
 20
326.48513779
 10
51.8129782121
 20
326.279080525
 10
51.6602632623
 20
326.087067347
 10
51.4894630941
 20
325.910947447
 10
51.3022226065
 20
325.752416956
 10
51.1003450276
 20
325.613002611
 10
50.885774549
 20
325.494047046
 10
50.6605776017
 20
325.39669587
 10
50.4269229553
 20
325.321886627
 10
50.1870608318
 20
325.270339772
 10
49.9433012346
 20
325.242551728
 10
49.697991702
 20
325.238790109
 10
49.4534946987
 20
325.259091143
 10
49.2121648645
 20
325.303259319
 10
48.9763263378
 20
325.370869273
 10
48.7482503724
 20
325.461269885
 10
48.5301334646
 20
325.573590547
 10
48.3240761993
 20
325.70674955
 10
48.1320630209
 20
325.8594645
 10
47.955943121
 20
326.030264668
 10
47.7974126306
 20
326.217505156
 10
47.657998285
 20
326.419382734
 10
47.5390427206
 20
326.633953213
 10
47.4416915444
 20
326.85915016
 10
44.5597388454
 20
334.540291951
 10
41.9485771238
 20
332.316611455
 10
36.8613740902
 20
326.106714098
 10
27.415742568
 20
314.106676717
  0
LWPOLYLINE
  5
652
330
1F
100
AcDbEntity
  8
outline
 67
0
100
AcDbPolyline
 90
46
 70
0
 10
157.376615337
 20
302.268604702
 10
162.739416193
 20
295.290980451
 10
163.435572396
 20
293.873836153
 10
167.302242117
 20
279.217617866
 10
172.114644924
 20
278.524358046
 10
173.287390487
 20
278.027658623
 10
183.413637923
 20
270.198011431
 10
183.651536213
 20
269.988681747
 10
195.741209504
 20
257.90803884
 10
216.12133966
 20
242.764492935
 10
220.870128972
 20
239.766799822
 10
239.981938035
 20
227.74695543
 10
295.807447688
 20
210.56344497
 10
322.712288849
 20
204.085911903
 10
323.112805061
 20
203.952842714
 10
352.061557541
 20
191.532955351
 10
369.188560099
 20
189.268551625
 10
369.696939326
 20
189.146176644
 10
393.078763279
 20
180.849017004
 10
393.327425106
 20
180.745376493
 10
416.025815958
 20
169.814265982
 10
416.484694422
 20
169.52839487
 10
436.946119054
 20
153.467623327
 10
458.027637451
 20
141.761708607
 10
458.330367467
 20
141.563675343
 10
463.784275569
 20
137.402891195
 10
465.446043383
 20
139.515298864
 10
468.239283895
 20
143.736020055
 10
462.769810819
 20
148.657435396
 10
445.669285878
 20
162.510748707
 10
427.399316772
 20
174.472829344
 10
411.349659907
 20
182.984803949
 10
410.943467205
 20
183.232236862
 10
396.689417057
 20
193.12288769
 10
374.946994744
 20
201.015386631
 10
251.692517687
 20
244.672106122
 10
251.115790584
 20
244.929259775
 10
231.978356223
 20
255.345379019
 10
231.953228405
 20
255.35917252
 10
218.811685846
 20
262.634402386
 10
218.811593365
 20
262.634459686
 10
218.811495716
 20
262.63450765
 10
199.240088259
 20
273.47073517
 10
198.899543636
 20
273.682248921
 10
172.494867958
 20
291.977255674
 10
157.376615337
 20
302.268604702
  0
LWPOLYLINE
  5
653
330
1F
100
AcDbEntity
  8
outline
 67
0
100
AcDbPolyline
 90
33
 70
0
 10
177.023451133
 20
298.571196256
 10
177.037478522
 20
298.562463472
 10
203.290756481
 20
280.372355652
 10
222.38067411
 20
269.802717713
 10
234.506108145
 20
265.632252526
 10
229.054553001
 20
269.067512061
 10
179.344568809
 20
299.789172731
 10
178.686656331
 20
300.297323268
 10
164.536353875
 20
313.794101897
 10
159.995983535
 20
316.967656379
 10
159.922924851
 20
317.024254352
 10
159.847024323
 20
317.07698017
 10
126.325030654
 20
342.89150363
 10
125.875626861
 20
343.295147799
 10
116.68266594
 20
352.901548962
 10
107.722577791
 20
353.867543024
 10
59.5292276388
 20
357.030239203
 10
59.3018362266
 20
357.051696737
 10
41.5765683689
 20
359.236476312
 10
41.3681876017
 20
357.166992796
 10
68.933998483
 20
353.988698469
 10
69.4867715514
 20
353.885168122
 10
100.591716102
 20
345.760156702
 10
100.618733792
 20
345.749902124
 10
100.692104959
 20
345.732533251
 10
101.063386562
 20
345.605102022
 10
101.37219422
 20
345.463925844
 10
101.392346006
 20
345.456277224
 10
129.869411087
 20
330.990736253
 10
130.374981333
 20
330.684977603
 10
142.334246142
 20
322.185932227
 10
177.010264624
 20
298.58115342
 10
177.023451133
 20
298.571196256
  0
LWPOLYLINE
  5
654
330
1F
100
AcDbEntity
  8
outline
 67
0
100
AcDbPolyline
 90
40
 70
0
 10
164.654863586
 20
323.471760957
 10
169.248668954
 20
320.260857326
 10
186.803346854
 20
309.813349401
 10
205.862324264
 20
300.070136773
 10
205.994769643
 20
299.999261017
 10
250.28040331
 20
275.219866168
 10
287.882979979
 20
257.368889993
 10
404.623471578
 20
214.173192261
 10
420.224391487
 20
208.497062831
 10
420.784088952
 20
208.243184062
 10
440.471229082
 20
197.417835723
 10
440.765300404
 20
197.239249263
 10
479.48328119
 20
171.383655495
 10
479.536964447
 20
171.343863467
 10
479.593111004
 20
171.307630032
 10
479.694556412
 20
171.227050437
 10
479.798635749
 20
171.149902958
 10
479.848160206
 20
171.10504066
 10
479.900484904
 20
171.063478374
 10
483.96405958
 20
167.496914861
 10
486.138867949
 20
170.783155245
 10
481.925270729
 20
174.28635066
 10
467.623962646
 20
184.903741866
 10
443.456080301
 20
201.131920906
 10
415.250115603
 20
215.513866936
 10
367.48160925
 20
236.693972265
 10
352.599213893
 20
243.288547887
 10
290.925854798
 20
265.130210853
 10
290.759727946
 20
265.193231169
 10
262.029773063
 20
276.828253491
 10
261.637728104
 20
277.012320701
 10
223.743146452
 20
297.376976836
 10
223.627422794
 20
297.441661217
 10
171.098361471
 20
327.95638826
 10
170.9501613
 20
328.052502981
 10
170.801023723
 20
328.14715663
 10
139.162274753
 20
350.478004878
 10
129.029415839
 20
351.570436267
 10
131.446071377
 20
349.045095109
 10
164.654863586
 20
323.471760957
  0
LWPOLYLINE
  5
655
330
1F
100
AcDbEntity
  8
outline
 67
0
100
AcDbPolyline
 90
12
 70
0
 10
175.269707602
 20
334.785087477
 10
227.588558063
 20
304.392474307
 10
265.233709208
 20
284.161862836
 10
293.680288349
 20
272.641601679
 10
308.398877063
 20
267.429003261
 10
296.656191945
 20
273.85045776
 10
296.603849982
 20
273.879592066
 10
225.863466998
 20
313.951469176
 10
194.442299429
 20
330.205896389
 10
172.604393096
 20
341.16518329
 10
158.349919889
 20
346.727190882
 10
175.269707602
 20
334.785087477
  0
LWPOLYLINE
  5
656
330
1F
100
AcDbEntity
  8
outline
 67
0
100
AcDbPolyline
 90
70
 70
0
 10
355.852206446
 20
250.597324279
 10
370.431328674
 20
244.137132776
 10
421.218376172
 20
230.738970484
 10
393.07432193
 20
244.746568014
 10
306.676442634
 20
281.234709416
 10
305.004119778
 20
285.004000757
 10
304.786383187
 20
284.945534258
 10
304.544343012
 20
284.905440992
 10
304.299538498
 20
284.889264872
 10
304.054327249
 20
284.897161683
 10
303.811070781
 20
284.929055373
 10
303.572111788
 20
284.984638791
 10
303.339751576
 20
285.063376636
 10
303.116227899
 20
285.16451062
 10
302.903693415
 20
285.287066768
 10
302.704194945
 20
285.429864798
 10
281.854847478
 20
301.959014952
 10
273.50061598
 20
303.899560265
 10
273.038922923
 20
304.05556806
 10
245.489721444
 20
316.473486296
 10
244.661021816
 20
317.077799095
 10
230.37803371
 20
332.905992156
 10
229.896053927
 20
333.695593269
 10
223.880334807
 20
349.583687238
 10
223.868624011
 20
349.619889031
 10
223.854489215
 20
349.655214943
 10
223.830887931
 20
349.736543247
 10
223.804823719
 20
349.817116011
 10
223.79671771
 20
349.854291341
 10
223.786113521
 20
349.890832601
 10
223.770597452
 20
349.974082618
 10
223.752556258
 20
350.056822142
 10
223.748133101
 20
350.09461299
 10
223.741161645
 20
350.132017687
 10
223.733880218
 20
350.216387672
 10
223.724035789
 20
350.30049713
 10
223.723338082
 20
350.33853955
 10
223.720066496
 20
350.376447454
 10
223.434985981
 20
358.077223863
 10
174.531254377
 20
363.211975023
 10
174.02937325
 20
363.317567155
 10
164.864514648
 20
366.254564107
 10
163.92653865
 20
366.803123012
 10
155.601187748
 20
374.532004774
 10
139.595191347
 20
386.157878792
 10
139.059305428
 20
386.687418633
 10
135.525204315
 20
391.433076452
 10
135.525044347
 20
391.433314844
 10
135.524861835
 20
391.43353645
 10
133.994136969
 20
393.490007365
 10
124.174631766
 20
386.579996635
 10
124.122577003
 20
386.547061444
 10
124.072194544
 20
386.511620888
 10
118.013816493
 20
382.68001238
 10
118.237639114
 20
382.214650379
 10
118.470827377
 20
381.393870117
 10
118.6568052
 20
379.634566358
 10
142.083444108
 20
358.209429677
 10
147.934674868
 20
357.578603945
 10
148.397040348
 20
357.501123633
 10
158.606272487
 20
355.168067474
 10
159.169156502
 20
354.994967067
 10
175.685996841
 20
348.550197764
 10
176.026123638
 20
348.398887771
 10
198.052509537
 20
337.345012973
 10
198.096253632
 20
337.322723021
 10
229.606731173
 20
321.022095028
 10
229.740368479
 20
320.949712636
 10
300.520820547
 20
280.855137835
 10
355.852206446
 20
250.597324279
  0
LWPOLYLINE
  5
657
330
1F
100
AcDbEntity
  8
outline
 67
0
100
AcDbPolyline
 90
8
 70
0
 10
115.657353127
 20
371.536572126
 10
115.588747653
 20
371.464261084
 10
113.387201255
 20
369.817514859
 10
112.616702557
 20
369.427459158
 10
112.09317724
 20
369.268357924
 10
120.443545358
 20
360.542443967
 10
128.645387147
 20
359.658197034
 10
115.657353127
 20
371.536572126
  0
LWPOLYLINE
  5
658
330
1F
100
AcDbEntity
  8
outline
 67
0
100
AcDbPolyline
 90
8
 70
0
 10
95.6042278222
 20
377.008435919
 10
89.5711438639
 20
377.488572376
 10
87.8929522813
 20
366.986361464
 10
85.7597002778
 20
365.39088694
 10
108.069734963
 20
361.901834166
 10
101.701844042
 20
368.556111854
 10
101.338754656
 20
368.994038583
 10
95.6042278222
 20
377.008435919
  0
LWPOLYLINE
  5
659
330
1F
100
AcDbEntity
  8
outline
 67
0
100
AcDbPolyline
 90
52
 70
0
 10
643.703362638
 20
236.528503658
 10
643.752363101
 20
236.330440526
 10
643.808831292
 20
235.941981918
 10
643.826951971
 20
235.549858994
 10
643.806550627
 20
235.157848112
 10
643.747823735
 20
234.769724551
 10
643.651336867
 20
234.389226153
 10
643.518019245
 20
234.020017326
 10
643.349154791
 20
233.665653752
 10
643.146369761
 20
233.329548146
 10
642.911617086
 20
233.01493739
 10
630.11393489
 20
217.51307792
 10
629.622759915
 20
204.499768648
 10
629.617205243
 20
204.435945528
 10
629.615882101
 20
204.371894812
 10
624.449170512
 20
130.409016419
 10
623.562813542
 20
109.387880786
 10
628.435792349
 20
109.205492773
 10
632.761509396
 20
109.112513148
 10
632.551146226
 20
111.095909904
 10
632.540951352
 20
111.49644805
 10
632.894565457
 20
117.946085502
 10
632.946319289
 20
118.333087931
 10
634.496334534
 20
125.565891722
 10
634.619075745
 20
125.969092394
 10
637.822975559
 20
133.992988709
 10
638.000556928
 20
134.351425777
 10
642.452995
 20
141.777943944
 10
645.033356736
 20
149.422475799
 10
646.117856898
 20
156.628890748
 10
645.636889986
 20
166.199920485
 10
644.500973792
 20
176.633039416
 10
644.48629102
 20
176.899015273
 10
644.469642124
 20
185.91777972
 10
644.472684827
 20
185.935844671
 10
644.473250919
 20
186.056753333
 10
644.498441145
 20
186.300795069
 10
644.547430347
 20
186.541192604
 10
644.607376795
 20
186.735529422
 10
644.609086188
 20
186.745678323
 10
647.594321083
 20
195.305063871
 10
647.615974114
 20
195.364703392
 10
650.554307512
 20
203.148466565
 10
652.921965191
 20
213.240196289
 10
654.61233898
 20
224.151248596
 10
655.013916985
 20
230.893307877
 10
655.125816159
 20
231.498374192
 10
657.722081731
 20
239.709298244
 10
659.014062992
 20
246.403358805
 10
659.191356037
 20
254.446360798
 10
658.644208975
 20
256.17290047
 10
643.703362638
 20
236.528503658
  0
LWPOLYLINE
  5
65A
330
1F
100
AcDbEntity
  8
outline
 67
0
100
AcDbPolyline
 90
8
 70
0
 10
662.346601774
 20
261.040849156
 10
662.881982072
 20
259.351439879
 10
667.87797903
 20
264.053010626
 10
667.91208178
 20
264.08208414
 10
667.944307037
 20
264.113225745
 10
675.06224731
 20
270.346215872
 10
674.041866229
 20
276.417917536
 10
662.346601774
 20
261.040849156
  0
LWPOLYLINE
  5
65B
330
1F
100
AcDbEntity
  8
outline
 67
0
100
AcDbPolyline
 90
69
 70
0
 10
678.163210954
 20
282.063503085
 10
680.224339387
 20
269.798911772
 10
680.229662365
 20
269.753784394
 10
680.237763976
 20
269.709072224
 10
680.244024055
 20
269.632028235
 10
680.253078918
 20
269.555262524
 10
680.253953008
 20
269.509830704
 10
680.257633048
 20
269.464539738
 10
680.256311351
 20
269.387253142
 10
680.257798257
 20
269.309969547
 10
680.254215041
 20
269.264670818
 10
680.25343807
 20
269.219237234
 10
680.244547326
 20
269.142452342
 10
680.238451955
 20
269.065395147
 10
680.230445942
 20
269.02066576
 10
680.225219442
 20
268.975527107
 10
680.208845274
 20
268.899983401
 10
680.195226328
 20
268.823894708
 10
680.182874619
 20
268.780165433
 10
680.173248925
 20
268.735756421
 10
680.149549025
 20
268.662181428
 10
680.128537662
 20
268.587794013
 10
680.111959211
 20
268.545485985
 10
680.098027023
 20
268.502234298
 10
680.067229634
 20
268.431336585
 10
680.039028204
 20
268.359366839
 10
680.018382672
 20
268.318887508
 10
680.000278164
 20
268.277209683
 10
679.962679882
 20
268.209672034
 10
679.927559981
 20
268.140813066
 10
679.903046194
 20
268.10255227
 10
679.880943724
 20
268.062849687
 10
679.83690664
 20
267.999322526
 10
679.795206492
 20
267.934237485
 10
679.767060532
 20
267.898563697
 10
679.741172957
 20
267.861218714
 10
679.691121174
 20
267.802313842
 10
679.643242374
 20
267.741629533
 10
679.611735301
 20
267.70888631
 10
679.582311934
 20
267.674258579
 10
679.526727476
 20
267.620543284
 10
679.473131124
 20
267.564844129
 10
679.438566369
 20
267.535346807
 10
679.405890572
 20
267.503769812
 10
671.271967774
 20
260.381110932
 10
664.176195875
 20
253.703510071
 10
664.008192626
 20
246.081945061
 10
663.963498315
 20
245.663272607
 10
662.604067111
 20
238.619737939
 10
662.533046463
 20
238.339794226
 10
659.986638031
 20
230.286547874
 10
659.596486148
 20
223.736320812
 10
659.571437111
 20
223.502223337
 10
657.848327336
 20
212.37986625
 10
657.811710971
 20
212.191579121
 10
655.384815168
 20
201.847357179
 10
655.289802154
 20
201.535463049
 10
652.304976353
 20
193.628539635
 10
650.227015967
 20
187.670528045
 10
694.442778662
 20
176.374791658
 10
700.438978399
 20
188.388191055
 10
703.702155125
 20
202.731884536
 10
718.498496665
 20
267.822805472
 10
719.822354617
 20
273.628819121
 10
709.553646972
 20
278.999966133
 10
708.252751967
 20
280.767651274
 10
703.577017903
 20
306.462672927
 10
701.714049561
 20
315.605742247
 10
678.163210954
 20
282.063503085
  0
LWPOLYLINE
  5
65C
330
1F
100
AcDbEntity
  8
outline
 67
0
100
AcDbPolyline
 90
10
 70
0
 10
178.732792685
 20
112.891804743
 10
155.606214616
 20
166.071754137
 10
155.595683549
 20
166.09632899
 10
145.687177801
 20
189.564224484
 10
143.117576772
 20
194.651477328
 10
142.492178225
 20
191.608238222
 10
138.289056865
 20
116.092207638
 10
144.046057449
 20
115.23281917
 10
177.737465236
 20
112.837431865
 10
178.732792685
 20
112.891804743
  0
LWPOLYLINE
  5
65D
330
1F
100
AcDbEntity
  8
outline
 67
0
100
AcDbPolyline
 90
42
 70
0
 10
144.73753615
 20
202.534328599
 10
150.188620129
 20
191.742364336
 10
150.260257743
 20
191.587641419
 10
160.196742869
 20
168.053477899
 10
184.128449147
 20
113.022122849
 10
199.522227101
 20
112.359628053
 10
243.361080453
 20
114.993077186
 10
293.041470353
 20
118.727854234
 10
293.101509208
 20
118.731641875
 10
332.824991595
 20
120.758145857
 10
350.703233551
 20
122.560331585
 10
350.750786723
 20
122.562776855
 10
350.798107183
 20
122.568073787
 10
350.873223934
 20
122.569072796
 10
350.948248203
 20
122.572930679
 10
350.995812071
 20
122.570703148
 10
351.04342386
 20
122.571336358
 10
355.940652569
 20
122.395995834
 10
355.942768606
 20
122.395192594
 10
355.958583402
 20
122.395289393
 10
356.018337778
 20
122.389773171
 10
356.078293621
 20
122.38726102
 10
356.140414009
 20
122.378503711
 10
356.202883015
 20
122.372736888
 10
358.649727916
 20
122.025074052
 10
355.181958746
 20
126.002399044
 10
354.912606932
 20
126.375854063
 10
332.279819137
 20
164.772880559
 10
317.633829861
 20
184.243870245
 10
293.875273069
 20
205.926678586
 10
238.195210081
 20
223.065419472
 10
237.599714946
 20
223.338532938
 10
218.830679542
 20
235.142799306
 10
206.827103688
 20
234.995597617
 10
206.372509221
 20
235.031616683
 10
189.09971909
 20
238.003703841
 10
173.337995934
 20
238.133753035
 10
173.209758755
 20
238.138103966
 10
155.808477901
 20
239.176114509
 10
148.806741029
 20
222.306971909
 10
144.942916528
 20
203.533725866
 10
144.73753615
 20
202.534328599
  0
LWPOLYLINE
  5
65E
330
1F
100
AcDbEntity
  8
outline
 67
0
100
AcDbPolyline
 90
18
 70
0
 10
364.294561538
 20
116.17280222
 10
408.692178687
 20
79.544806284
 10
408.736602365
 20
79.5072799916
 10
414.325373611
 20
74.673746835
 10
439.305691727
 20
106.347521027
 10
427.263912211
 20
106.954619659
 10
426.620528012
 20
107.072744569
 10
402.209129612
 20
114.967303901
 10
364.872210096
 20
116.106168158
 10
364.856653079
 20
116.10740881
 10
364.841046963
 20
116.107313288
 10
364.809450388
 20
116.110230124
 10
364.777725343
 20
116.110840839
 10
364.702827087
 20
116.119676235
 10
364.627648181
 20
116.125671656
 10
364.612287681
 20
116.128431188
 10
364.596747349
 20
116.129865793
 10
364.294561538
 20
116.17280222
  0
LWPOLYLINE
  5
65F
330
1F
100
AcDbEntity
  8
outline
 67
0
100
AcDbPolyline
 90
22
 70
0
 10
443.102694061
 20
111.162441676
 10
460.69050546
 20
133.474216695
 10
455.441832203
 20
137.478427267
 10
434.345169932
 20
149.192750913
 10
434.015199503
 20
149.411864326
 10
413.611388731
 20
165.427413061
 10
391.279518421
 20
176.182014295
 10
368.27257681
 20
184.346145022
 10
351.064728306
 20
186.621237592
 10
350.406719482
 20
186.802188937
 10
321.33604991
 20
199.274382408
 10
304.011308691
 20
203.445437849
 10
321.176708565
 20
187.779752478
 10
321.489342688
 20
187.435965719
 10
336.36006463
 20
167.666207044
 10
336.51587169
 20
167.432880595
 10
359.102599758
 20
129.113995449
 10
366.115540881
 20
121.070569076
 10
402.716627326
 20
119.954149466
 10
403.409671246
 20
119.834015563
 10
427.845158658
 20
111.931665931
 10
443.102694061
 20
111.162441676
  0
LWPOLYLINE
  5
660
330
1F
100
AcDbEntity
  8
outline
 67
0
100
AcDbPolyline
 90
16
 70
0
 10
490.580277999
 20
177.494340136
 10
493.993296028
 20
182.651575062
 10
488.98525635
 20
187.542747316
 10
467.262870074
 20
202.193507796
 10
430.571953055
 20
219.997695492
 10
416.504306683
 20
223.708889949
 10
418.591877862
 20
222.783280571
 10
418.787536562
 20
222.690105683
 10
447.303772167
 20
208.149955546
 10
447.716626027
 20
207.907265401
 10
472.162207269
 20
191.492617917
 10
472.316723779
 20
191.383475257
 10
486.782300417
 20
180.644129927
 10
486.867266235
 20
180.574330887
 10
486.955167223
 20
180.508266431
 10
490.580277999
 20
177.494340136
  0
LWPOLYLINE
  5
661
330
1F
100
AcDbEntity
  8
outline
 67
0
100
AcDbPolyline
 90
7
 70
0
 10
508.534530062
 20
185.597877626
 10
506.281196652
 20
181.832903983
 10
508.482433259
 20
179.68303535
 10
524.072450959
 20
204.345996765
 10
523.48056704
 20
204.738011786
 10
511.439853962
 20
189.323365674
 10
508.534530062
 20
185.597877626
  0
LWPOLYLINE
  5
662
330
1F
100
AcDbEntity
  8
outline
 67
0
100
AcDbPolyline
 90
5
 70
0
 10
502.057424726
 20
174.775630567
 10
499.330509876
 20
170.21937516
 10
501.408273483
 20
168.491917228
 10
504.111947494
 20
172.769052064
 10
502.057424726
 20
174.775630567
  0
LWPOLYLINE
  5
663
330
1F
100
AcDbEntity
  8
outline
 67
0
100
AcDbPolyline
 90
5
 70
0
 10
495.172736039
 20
163.272374401
 10
492.970211694
 20
159.592294895
 10
494.779057299
 20
158.004687124
 10
497.097385513
 20
161.672215947
 10
495.172736039
 20
163.272374401
  0
LWPOLYLINE
  5
664
330
1F
100
AcDbEntity
  8
outline
 67
0
100
AcDbPolyline
 90
19
 70
0
 10
528.243023966
 20
201.586062005
 10
512.139719412
 20
176.111095489
 10
525.315792053
 20
163.24249918
 10
525.881909949
 20
162.549740626
 10
548.403893237
 20
127.648720922
 10
560.443941158
 20
109.079595902
 10
561.046495864
 20
109.379984014
 10
555.638949696
 20
121.570983914
 10
555.533627078
 20
121.853179219
 10
550.583937386
 20
138.029569572
 10
550.512920636
 20
138.324615282
 10
547.684549033
 20
154.277436379
 10
547.665053292
 20
154.407092545
 10
546.474263548
 20
164.037770475
 10
546.463058454
 20
164.540468542
 10
547.403566512
 20
176.504701411
 10
547.470169075
 20
176.913708633
 10
550.030296077
 20
187.179599458
 10
528.243023966
 20
201.586062005
  0
LWPOLYLINE
  5
665
330
1F
100
AcDbEntity
  8
outline
 67
0
100
AcDbPolyline
 90
8
 70
0
 10
507.769233646
 20
169.197112203
 10
505.285692487
 20
165.268221233
 10
517.245761034
 20
155.324589907
 10
517.94496774
 20
154.57163194
 10
533.485807896
 20
132.784659146
 10
535.548967182
 20
132.814969684
 10
519.404070995
 20
157.833784978
 10
507.769233646
 20
169.197112203
  0
LWPOLYLINE
  5
666
330
1F
100
AcDbEntity
  8
outline
 67
0
100
AcDbPolyline
 90
8
 70
0
 10
500.974804517
 20
158.448519952
 10
498.583506808
 20
154.665555476
 10
502.568042221
 20
151.168364025
 10
503.11426579
 20
150.582176424
 10
516.824383829
 20
132.539880799
 10
523.761029689
 20
132.641789298
 10
511.732935774
 20
149.504182339
 10
500.974804517
 20
158.448519952
  0
LWPOLYLINE
  5
667
330
1F
100
AcDbEntity
  8
outline
 67
0
100
AcDbPolyline
 90
36
 70
0
 10
633.292993962
 20
104.099934179
 10
628.308448672
 20
104.207075063
 10
628.288582032
 20
104.208479557
 10
628.268667165
 20
104.208247013
 10
623.352173162
 20
104.392263732
 10
621.517543816
 20
60.8815861774
 10
622.28843804
 20
60.9007421333
 10
623.613593984
 20
60.5589885623
 10
628.472201057
 20
57.7146096294
 10
636.26279885
 20
53.737590194
 10
649.774807971
 20
46.8690582249
 10
649.778149542
 20
46.8673564561
 10
660.324832972
 20
41.4862596227
 10
665.673724701
 20
62.7607943033
 10
659.712122976
 20
64.0839670028
 10
659.705348197
 20
64.0854805316
 10
652.526184456
 20
65.6998195881
 10
652.206943365
 20
65.7943285132
 10
647.694940302
 20
67.4641739639
 10
646.685270128
 20
68.1578649922
 10
641.732307643
 20
73.7903113982
 10
641.668202124
 20
73.8708606883
 10
641.602832146
 20
73.9503872352
 10
636.00412947
 20
81.4870289801
 10
635.741594679
 20
81.9290964378
 10
634.565076555
 20
84.4749564033
 10
634.457243376
 20
86.2975442209
 10
635.142112855
 20
88.4014603458
 10
635.586852523
 20
89.2136626666
 10
636.75803358
 20
90.6406680528
 10
637.031600969
 20
92.608276448
 10
636.879553268
 20
94.7066989832
 10
635.258989011
 20
98.2314523912
 10
633.891340076
 20
100.563256761
 10
633.561715628
 20
101.564560735
 10
633.292993962
 20
104.099934179
  0
LWPOLYLINE
  5
668
330
1F
100
AcDbEntity
  8
outline
 67
0
100
AcDbPolyline
 90
81
 70
0
 10
615.35768144
 20
104.691485117
 10
607.471145129
 20
104.986665898
 10
604.001906976
 20
104.872145072
 10
601.600834632
 20
104.791293529
 10
598.441647848
 20
103.512626387
 10
595.22473018
 20
98.1643242611
 10
594.202927773
 20
89.1465578033
 10
593.83887573
 20
88.1031239732
 10
591.66537346
 20
84.6251922265
 10
590.74136859
 20
83.7547702307
 10
586.246442344
 20
81.305869743
 10
585.344391439
 20
81.0185461278
 10
584.098294283
 20
80.8709831077
 10
584.232534407
 20
80.6891469774
 10
590.3037093
 20
74.1287817057
 10
590.681786621
 20
73.5939083978
 10
592.089488464
 20
70.9157315072
 10
598.917126522
 20
67.3704428669
 10
601.234515759
 20
67.5920853787
 10
603.389125573
 20
68.7673106616
 10
606.590347897
 20
70.7253347089
 10
606.590851807
 20
70.7256099002
 10
606.591326465
 20
70.7259329404
 10
606.698511554
 20
70.784404206
 10
606.805669807
 20
70.8429246394
 10
606.806198263
 20
70.8431491138
 10
606.806702299
 20
70.8434240738
 10
606.919102449
 20
70.8911078084
 10
607.031480711
 20
70.9388431044
 10
607.032028626
 20
70.9390147001
 10
607.032557185
 20
70.939238932
 10
607.149089921
 20
70.975675915
 10
607.265605928
 20
71.0121663567
 10
607.266168024
 20
71.012283421
 10
607.266716017
 20
71.0124547653
 10
607.386259065
 20
71.0372940888
 10
607.505790704
 20
71.0621882532
 10
607.506361567
 20
71.0622496589
 10
607.506923716
 20
71.0623664653
 10
607.628325811
 20
71.075368913
 10
607.749721928
 20
71.0884270557
 10
607.750296061
 20
71.0884322113
 10
607.750866952
 20
71.0884933551
 10
607.872958925
 20
71.0895337063
 10
607.995050408
 20
71.0906300703
 10
607.995622282
 20
71.0905789262
 10
607.996196417
 20
71.0905838184
 10
608.117802456
 20
71.0796520539
 10
608.239413498
 20
71.0687760806
 10
608.239977605
 20
71.0686691294
 10
608.240549455
 20
71.068617723
 10
608.360498428
 20
71.0458191217
 10
608.480457847
 20
71.0230755526
 10
608.481008755
 20
71.0229138242
 10
608.481572813
 20
71.0228066142
 10
608.598709545
 20
70.9883607391
 10
608.715862067
 20
70.9539686073
 10
608.71639447
 20
70.9537536593
 10
608.716945303
 20
70.9535916782
 10
608.830141704
 20
70.907830262
 10
608.943359086
 20
70.8621207824
 10
608.943867857
 20
70.8618546849
 10
608.944400161
 20
70.8616394926
 10
609.052566086
 20
70.8050032427
 10
609.160757984
 20
70.7484166226
 10
609.161238222
 20
70.7481019382
 10
609.161746871
 20
70.7478356073
 10
609.263840624
 20
70.6808699616
 10
609.36596509
 20
70.6139511612
 10
609.366412171
 20
70.6135909205
 10
609.366892265
 20
70.6132760158
 10
609.461930629
 20
70.5366258902
 10
609.557004147
 20
70.4600193741
 10
609.557413766
 20
70.4596170464
 10
609.557860682
 20
70.4592566005
 10
609.644928384
 20
70.3736601777
 10
609.732035346
 20
70.2881037085
 10
609.732403557
 20
70.2876631684
 10
609.732812992
 20
70.2872606528
 10
613.724476471
 20
65.9578548379
 10
615.35768144
 20
104.691485117
  0
LWPOLYLINE
  5
669
330
1F
100
AcDbEntity
  8
outline
 67
0
100
AcDbPolyline
 90
53
 70
0
 10
577.780471939
 20
81.0103687559
 10
575.023745493
 20
82.8477812476
 10
578.198031857
 20
76.8668216418
 10
583.893991464
 20
67.710954344
 10
584.030645865
 20
67.4735336861
 10
591.968446639
 20
52.5204736873
 10
592.102869165
 20
52.2417187142
 10
593.301517553
 20
49.4886329495
 10
613.424179561
 20
50.7562975686
 10
613.24645653
 20
54.0728919103
 10
613.24561651
 20
54.2617688445
 10
613.244077578
 20
54.4506413772
 10
613.407586352
 20
58.4423153469
 10
613.40778577
 20
58.4471132283
 10
613.42705695
 20
58.9041549121
 10
607.448192139
 20
65.388902991
 10
605.945143837
 20
64.4695651812
 10
605.837801295
 20
64.4075133284
 10
603.179295925
 20
62.9574397677
 10
602.220200301
 20
62.6635424075
 10
598.658263451
 20
62.322867385
 10
597.268160249
 20
62.5927929672
 10
589.089343996
 20
66.8396883219
 10
589.068940124
 20
66.8515891048
 10
589.047657704
 20
66.8618363135
 10
588.963017417
 20
66.9133696871
 10
588.877419214
 20
66.9632957788
 10
588.858280073
 20
66.9771391854
 10
588.838104536
 20
66.9894230929
 10
588.758922968
 20
67.0490045181
 10
588.678630558
 20
67.107080293
 10
588.660940467
 20
67.1227330038
 10
588.642066115
 20
67.1369353093
 10
588.569105829
 20
67.2039909845
 10
588.494892469
 20
67.2696571412
 10
588.478821796
 20
67.286968412
 10
588.461430398
 20
67.3029523396
 10
588.395394041
 20
67.3768364819
 10
588.327974448
 20
67.4494606194
 10
588.31367796
 20
67.4682637332
 10
588.297937006
 20
67.4858753488
 10
588.239460545
 20
67.5658764137
 10
588.179484006
 20
67.6447591218
 10
588.167099387
 20
67.6648729943
 10
588.153160469
 20
67.6839426886
 10
588.102807064
 20
67.7692902219
 10
588.050851186
 20
67.8536718171
 10
588.040497706
 20
67.8749027408
 10
588.028495065
 20
67.8952468621
 10
586.409625588
 20
70.9751737973
 10
580.468701356
 20
77.3947933427
 10
580.292265792
 20
77.6079964857
 10
577.780471939
 20
81.0103687559
  0
LWPOLYLINE
  5
66A
330
1F
100
AcDbEntity
  8
outline
 67
0
100
AcDbPolyline
 90
15
 70
0
 10
567.492426843
 20
79.9733110165
 10
567.294758944
 20
79.7523753723
 10
567.671955624
 20
77.2298465296
 10
575.751677392
 20
60.9767009677
 10
575.815637841
 20
60.8304423546
 10
575.882269868
 20
60.6853813537
 10
581.72419906
 20
46.1227409209
 10
581.864530587
 20
46.1804389516
 10
585.419799553
 20
47.5509530722
 10
584.829737087
 20
48.9062233853
 10
577.028803197
 20
63.6014564629
 10
571.332747892
 20
72.757477588
 10
571.266094427
 20
72.8773598411
 10
571.195923816
 20
72.9952179105
 10
567.492426843
 20
79.9733110165
  0
LWPOLYLINE
  5
66B
330
1F
100
AcDbEntity
  8
outline
 67
0
100
AcDbPolyline
 90
18
 70
0
 10
378.200249457
 20
19.5617493523
 10
378.879195539
 20
18.9885026547
 10
379.20402309
 20
19.1804010565
 10
379.92594423
 20
19.4667754503
 10
391.337079657
 20
22.0387048018
 10
391.519486795
 20
22.0727579806
 10
402.66813864
 20
23.7285641163
 10
416.870906522
 20
29.1346779651
 10
428.207035293
 20
37.9998204935
 10
424.753491981
 20
42.0259477992
 10
424.94951259
 20
45.4852451323
 10
432.865878303
 20
52.8393185977
 10
429.782691101
 20
54.9617753942
 10
429.589026887
 20
55.109498546
 10
421.797422623
 20
61.6771272118
 10
400.862804606
 20
36.5143265582
 10
400.170995053
 20
35.8600085053
 10
378.200249457
 20
19.5617493523
  0
LWPOLYLINE
  5
66C
330
1F
100
AcDbEntity
  8
outline
 67
0
100
AcDbPolyline
 90
4
 70
0
 10
370.950112415
 20
14.3042374886
 10
371.583378164
 20
14.6783519531
 10
371.537253093
 20
14.7172962013
 10
370.950112415
 20
14.3042374886
  0
LWPOLYLINE
  5
66D
330
1F
100
AcDbEntity
  8
outline
 67
0
100
AcDbPolyline
 90
20
 70
0
 10
553.076077965
 20
33.9542533939
 10
553.085075238
 20
33.943184439
 10
553.18549727
 20
33.7913512768
 10
553.286998528
 20
33.640237451
 10
553.29375316
 20
33.6276737084
 10
553.301622161
 20
33.6157761667
 10
553.386678381
 20
33.4548310422
 10
553.472879137
 20
33.2944960078
 10
553.478369781
 20
33.2813306933
 10
553.485034728
 20
33.2687191445
 10
553.563506546
 20
33.1007652937
 10
556.490279766
 20
33.6001001368
 10
559.378447063
 20
35.1877080557
 10
559.314640401
 20
35.3730426145
 10
556.381739258
 20
41.7632480072
 10
553.15755625
 20
38.5229328023
 10
552.383082851
 20
37.9939923011
 10
550.633354859
 20
37.2324384026
 10
553.068124397
 20
33.9660945689
 10
553.076077965
 20
33.9542533939
  0
LWPOLYLINE
  5
66E
330
1F
100
AcDbEntity
  8
outline
 67
0
100
AcDbPolyline
 90
10
 70
0
 10
566.424428181
 20
39.0608408312
 10
569.575695577
 20
40.793073267
 10
569.899904901
 20
40.952663075
 10
574.390713157
 20
42.9164668471
 10
568.516905367
 20
57.5585735902
 10
567.921231774
 20
58.7568289134
 10
563.642633675
 20
49.2859148996
 10
563.136507435
 20
48.5518136606
 10
562.405541914
 20
47.8171907545
 10
566.424428181
 20
39.0608408312
  0
LWPOLYLINE
  5
66F
330
1F
100
AcDbEntity
  8
outline
 67
0
100
AcDbPolyline
 90
7
 70
0
 10
663.36751912
 20
25.7661110001
 10
661.099571665
 20
21.8956552153
 10
660.453990088
 20
17.9881293442
 10
662.388053445
 20
20.9868444157
 10
662.390803491
 20
20.9911023651
 10
664.740195334
 20
24.6236591917
 10
663.36751912
 20
25.7661110001
  0
LWPOLYLINE
  5
670
330
1F
100
AcDbEntity
  8
outline
 67
0
100
AcDbPolyline
 90
12
 70
0
 10
621.445746973
 20
50.5680057153
 10
630.026551638
 20
49.49652132
 10
630.539637416
 20
49.3980686269
 10
637.159235474
 20
47.6729909269
 10
633.995172272
 20
49.281372705
 10
633.991348995
 20
49.2833203142
 10
626.134657321
 20
53.2940799915
 10
626.008285052
 20
53.363252264
 10
621.701440435
 20
55.8846123811
 10
621.309126105
 20
55.8748637595
 10
621.245113397
 20
54.3121472637
 10
621.445746973
 20
50.5680057153
  0
LWPOLYLINE
  5
671
330
1F
100
AcDbEntity
  8
outline
 67
0
100
AcDbPolyline
 90
5
 70
0
 10
418.112352299
 20
71.4012636645
 10
418.908241588
 20
70.7141331914
 10
448.168607435
 20
105.905605973
 10
445.431273639
 20
106.040268022
 10
418.112352299
 20
71.4012636645
  0
LWPOLYLINE
  5
672
330
1F
100
AcDbEntity
  8
outline
 67
0
100
AcDbPolyline
 90
9
 70
0
 10
452.141511111
 20
110.71620717
 10
466.853906175
 20
131.542252062
 10
472.085251411
 20
140.275430109
 10
471.997257822
 20
140.354606474
 10
469.55909368
 20
136.67042281
 10
469.439172774
 20
136.504415245
 10
466.191118504
 20
132.375550375
 10
449.230490133
 20
110.859413691
 10
452.141511111
 20
110.71620717
  0
LWPOLYLINE
  5
673
330
1F
100
AcDbEntity
  8
outline
 67
0
100
AcDbPolyline
 90
22
 70
0
 10
424.994745576
 20
65.5213707677
 10
432.718277778
 20
59.0111207901
 10
436.460055053
 20
56.4352925679
 10
444.610104459
 20
65.511354793
 10
448.134582618
 20
65.7064714462
 10
449.970001021
 20
64.0688917323
 10
454.910874216
 20
70.303487682
 10
466.047366588
 20
88.8101097428
 10
467.617063912
 20
114.01140634
 10
467.986105513
 20
115.171134587
 10
477.359712598
 20
130.324955467
 10
477.391162256
 20
130.417096682
 10
477.49278867
 20
130.640396902
 10
477.600202077
 20
130.82572599
 10
477.601462351
 20
130.830223979
 10
479.407326396
 20
133.687049168
 10
478.144714647
 20
134.823143404
 10
473.639350337
 20
127.301913356
 10
473.474905047
 20
127.049469099
 10
458.432627472
 20
105.756460945
 10
458.241332003
 20
105.507075233
 10
424.994745576
 20
65.5213707677
  0
LWPOLYLINE
  5
674
330
1F
100
AcDbEntity
  8
outline
 67
0
100
AcDbPolyline
 90
4
 70
0
 10
506.780519884
 20
132.392323159
 10
506.887654923
 20
132.393897114
 10
506.063997344
 20
133.477817289
 10
506.780519884
 20
132.392323159
  0
LWPOLYLINE
  5
675
330
1F
100
AcDbEntity
  8
outline
 67
0
100
AcDbPolyline
 90
13
 70
0
 10
547.564289962
 20
41.3497156414
 10
549.949943352
 20
42.388050542
 10
554.155226335
 20
46.6143746543
 10
541.992363097
 20
73.1148226667
 10
520.941783005
 20
113.898889786
 10
510.645551062
 20
127.448566018
 10
510.049617812
 20
127.439810971
 10
518.603610137
 20
114.480960496
 10
518.885559228
 20
113.978498609
 10
539.57470274
 20
69.948584829
 10
539.835630793
 20
69.2151768071
 10
546.390928952
 20
42.9238278672
 10
547.564289962
 20
41.3497156414
  0
LWPOLYLINE
  5
676
330
1F
100
AcDbEntity
  8
outline
 67
0
100
AcDbPolyline
 90
12
 70
0
 10
559.929619096
 20
53.2117317128
 10
564.646542058
 20
63.6529021028
 10
564.284845394
 20
66.0717735164
 10
552.706051131
 20
89.3636434589
 10
532.948781736
 20
119.761320683
 10
527.29096693
 20
127.693109184
 10
520.582279967
 20
127.594549703
 10
527.5216752
 20
118.462416786
 10
527.89131047
 20
117.876933022
 10
549.143658504
 20
76.7019542382
 10
549.224586714
 20
76.5358576655
 10
559.929619096
 20
53.2117317128
  0
LWPOLYLINE
  5
677
330
1F
100
AcDbEntity
  8
outline
 67
0
100
AcDbPolyline
 90
4
 70
0
 10
484.992651853
 20
127.071691014
 10
484.586326035
 20
127.06572155
 10
486.182241091
 20
124.942918918
 10
484.992651853
 20
127.071691014
  0
LWPOLYLINE
  5
678
330
1F
100
AcDbEntity
  8
outline
 67
0
100
AcDbPolyline
 90
36
 70
0
 10
650.022838293
 20
71.9340742432
 10
653.785890366
 20
70.5414077718
 10
660.798893675
 20
68.9644322976
 10
666.915261645
 20
67.6069093548
 10
670.020079191
 20
79.4893984335
 10
684.240466179
 20
136.253833246
 10
692.770347292
 20
171.641463472
 10
649.475587226
 20
182.701912662
 10
649.486036278
 20
177.041625005
 10
650.615397582
 20
166.668711174
 10
650.626933954
 20
166.523592847
 10
651.124118228
 20
156.62984475
 10
651.099431438
 20
156.13233409
 10
649.944826814
 20
148.460080727
 10
649.841363769
 20
148.032579766
 10
647.10429668
 20
139.923795535
 10
646.879771717
 20
139.437832507
 10
642.392080836
 20
131.952513831
 10
639.341012531
 20
124.311371116
 10
637.87634715
 20
117.476833609
 10
637.544455874
 20
111.423403144
 10
638.033154516
 20
106.815736786
 10
638.477034715
 20
102.62775274
 10
639.634867616
 20
100.653679021
 10
639.749844214
 20
100.433205093
 10
641.611696124
 20
96.3836471473
 10
641.833731855
 20
95.5199920948
 10
642.037611513
 20
92.7062325439
 10
642.020329698
 20
92.1812839079
 10
641.613425535
 20
89.2546629765
 10
641.069725313
 20
88.0129017943
 10
639.750717746
 20
86.4057797422
 10
639.515214433
 20
85.682314566
 10
640.171952144
 20
84.2612040777
 10
645.555098239
 20
77.014731826
 10
650.022838293
 20
71.9340742432
  0
LWPOLYLINE
  5
679
330
1F
100
AcDbEntity
  8
outline
 67
0
100
AcDbPolyline
 90
14
 70
0
 10
211.388651581
 20
240.051912526
 10
192.612348326
 20
254.003727754
 10
192.336307056
 20
254.241970558
 10
180.229625973
 20
266.339608554
 10
170.749929986
 20
273.669340078
 10
167.042248275
 20
274.203457204
 10
163.905893897
 20
262.216315277
 10
163.825995205
 20
261.949303105
 10
157.788639092
 20
244.066882968
 10
173.443423717
 20
243.133053348
 10
189.344096038
 20
243.001857691
 10
189.747408253
 20
242.965735758
 10
206.994739178
 20
239.998029305
 10
211.388651581
 20
240.051912526
  0
LWPOLYLINE
  5
67A
330
1F
100
AcDbEntity
  8
outline
 67
0
100
AcDbPolyline
 90
11
 70
0
 10
28.713518716
 20
328.689706175
 10
30.5992844838
 20
331.085444317
 10
30.648118491
 20
331.146255316
 10
35.9875457704
 20
337.664040263
 10
36.4883852543
 20
338.174528695
 10
41.3566301748
 20
342.320354359
 10
41.1199653884
 20
342.825562314
 10
37.6448808095
 20
349.621956963
 10
36.536867058
 20
349.978766565
 10
31.1304979339
 20
352.990729069
 10
28.713518716
 20
328.689706175
  0
LWPOLYLINE
  5
67B
330
1F
100
AcDbEntity
  8
outline
 67
0
100
AcDbPolyline
 90
8
 70
0
 10
45.767369444
 20
344.691334751
 10
53.7349952509
 20
347.362322995
 10
54.7121852262
 20
347.558920042
 10
54.7996326084
 20
347.565369123
 10
43.6551267295
 20
348.850312997
 10
45.5914470442
 20
345.063355664
 10
45.6294505076
 20
344.985750092
 10
45.767369444
 20
344.691334751
  0
LWPOLYLINE
  5
67C
330
1F
100
AcDbEntity
  8
outline
 67
0
100
AcDbPolyline
 90
10
 70
0
 10
32.7018094341
 20
365.400903287
 10
37.847054414
 20
367.185254785
 10
39.8459318485
 20
375.047554846
 10
40.3345709133
 20
376.015401316
 10
42.2850497832
 20
378.397446775
 10
40.3105589588
 20
381.356570494
 10
39.987623927
 20
381.94093783
 10
38.1747639739
 20
385.986300205
 10
36.3820139798
 20
389.657030722
 10
32.7018094341
 20
365.400903287
  0
LWPOLYLINE
  5
67D
330
1F
100
AcDbEntity
  8
outline
 67
0
100
AcDbPolyline
 90
8
 70
0
 10
45.8918526499
 20
374.910085361
 10
44.5549484932
 20
373.2773753
 10
42.9902286756
 20
367.122772469
 10
60.1671041728
 20
365.005586593
 10
60.2486019869
 20
365.000238286
 10
59.8875503451
 20
365.147732175
 10
59.0921136833
 20
365.583787006
 10
45.8918526499
 20
374.910085361
  0
LWPOLYLINE
  5
67E
330
1F
100
AcDbEntity
  8
outline
 67
0
100
AcDbPolyline
 90
5
 70
0
 10
53.9472969217
 20
380.368950275
 10
52.8132172909
 20
379.81524359
 10
63.3355402601
 20
372.380972166
 10
64.2430143444
 20
372.01025821
 10
53.9472969217
 20
380.368950275
  0
LWPOLYLINE
  5
67F
330
1F
100
AcDbEntity
  8
outline
 67
0
100
AcDbPolyline
 90
13
 70
0
 10
105.614295201
 20
383.674245837
 10
104.920096712
 20
383.308585339
 10
103.78378151
 20
382.151189831
 10
103.031830716
 20
380.698974332
 10
102.98641448
 20
380.439220218
 10
107.678862098
 20
373.881200563
 10
107.964143576
 20
373.58308896
 10
108.943395303
 20
373.536922987
 10
110.743390854
 20
374.083948133
 10
111.914328478
 20
374.959803902
 10
110.268133494
 20
376.465352891
 10
109.569835526
 20
377.306417089
 10
105.614295201
 20
383.674245837
  0
LWPOLYLINE
  5
680
330
1F
100
AcDbEntity
  8
outline
 67
0
100
AcDbPolyline
 90
19
 70
0
 10
142.841892665
 20
389.97941297
 10
153.642083304
 20
382.13474947
 10
146.424390331
 20
422.622809096
 10
140.386381445
 20
426.175747795
 10
139.616025012
 20
426.882757052
 10
135.98865915
 20
431.989922444
 10
133.057156364
 20
430.201510303
 10
129.638417324
 20
425.486113164
 10
130.12630703
 20
412.367534006
 10
134.883221852
 20
402.17326914
 10
134.885023309
 20
402.168855356
 10
134.887232641
 20
402.164630953
 10
136.365903939
 20
398.964014067
 10
136.737720049
 20
398.176269282
 10
137.382027511
 20
397.312406438
 10
137.382700449
 20
397.311405179
 10
137.383467389
 20
397.310473961
 10
139.535550406
 20
394.419231892
 10
142.841892665
 20
389.97941297
  0
LWPOLYLINE
  5
681
330
1F
100
AcDbEntity
  8
outline
 67
0
100
AcDbPolyline
 90
12
 70
0
 10
482.118619313
 20
345.002945706
 10
491.86495144
 20
341.21325978
 10
501.681124106
 20
369.661515308
 10
500.832789258
 20
370.258118754
 10
499.965681609
 20
371.335654513
 10
498.687343007
 20
374.381826836
 10
498.498096533
 20
375.515175482
 10
498.552220418
 20
376.328764319
 10
492.354994069
 20
377.975686029
 10
489.898402403
 20
369.578336155
 10
489.882374323
 20
369.525703708
 10
482.118619313
 20
345.002945706
  0
LWPOLYLINE
  5
682
330
1F
100
AcDbEntity
  8
outline
 67
0
100
AcDbPolyline
 90
10
 70
0
 10
506.55869283
 20
368.468316406
 10
496.58804434
 20
339.57237468
 10
510.641908565
 20
335.259651722
 10
518.482830642
 20
362.362878651
 10
520.553534348
 20
370.867989539
 10
516.950484818
 20
372.116871376
 10
511.898484064
 20
372.083962516
 10
510.708425215
 20
370.140076495
 10
509.089002269
 20
368.998546751
 10
506.55869283
 20
368.468316406
  0
LWPOLYLINE
  5
683
330
1F
100
AcDbEntity
  8
outline
 67
0
100
AcDbPolyline
 90
10
 70
0
 10
515.42288024
 20
333.793834793
 10
516.8904915
 20
333.344293715
 10
525.450715893
 20
330.71953938
 10
530.549986103
 20
347.705296549
 10
530.553787981
 20
347.717841154
 10
535.999862749
 20
365.519343616
 10
525.299346206
 20
369.224046533
 10
523.32826531
 20
361.128121683
 10
523.30074353
 20
361.024754107
 10
515.42288024
 20
333.793834793
  0
LWPOLYLINE
  5
684
330
1F
100
AcDbEntity
  8
outline
 67
0
100
AcDbPolyline
 90
7
 70
0
 10
530.23126457
 20
329.25421035
 10
540.673439855
 20
326.05457457
 10
543.968403386
 20
337.004990193
 10
550.992162922
 20
360.327249183
 10
540.727753971
 20
363.882176865
 10
535.336958018
 20
346.261363433
 10
530.23126457
 20
329.25421035
  0
LWPOLYLINE
  5
685
330
1F
100
AcDbEntity
  8
outline
 67
0
100
AcDbPolyline
 90
12
 70
0
 10
434.749142512
 20
333.202121886
 10
435.600024142
 20
331.997943478
 10
443.207725448
 20
321.271674451
 10
443.499503607
 20
320.729076894
 10
454.452950024
 20
292.476494688
 10
454.615238809
 20
291.756548904
 10
456.069569403
 20
272.023957022
 10
456.91276292
 20
272.739345623
 10
473.022026417
 20
300.60524175
 10
477.684710937
 20
309.386701277
 10
458.629935082
 20
326.673338625
 10
434.749142512
 20
333.202121886
  0
LWPOLYLINE
  5
686
330
1F
100
AcDbEntity
  8
outline
 67
0
100
AcDbPolyline
 90
14
 70
0
 10
409.873257943
 20
284.478053651
 10
413.704993343
 20
275.114091096
 10
420.805440177
 20
268.396943641
 10
427.979329822
 20
262.89656212
 10
436.433215618
 20
260.221546179
 10
451.326150725
 20
268.358614942
 10
449.656186895
 20
291.016953324
 10
438.949810451
 20
318.632259877
 10
433.527831925
 20
326.276829239
 10
429.477739609
 20
320.742488718
 10
429.113103253
 20
320.343234623
 10
411.674202494
 20
304.976046534
 10
407.514207094
 20
294.147814272
 10
409.873257943
 20
284.478053651
  0
LWPOLYLINE
  5
687
330
1F
100
AcDbEntity
  8
outline
 67
0
100
AcDbPolyline
 90
13
 70
0
 10
491.047702469
 20
304.063278049
 10
505.371679526
 20
309.209348716
 10
512.887628475
 20
329.341099227
 10
511.605179806
 20
329.733923521
 10
494.956820687
 20
334.842821342
 10
491.4683202
 20
324.723476379
 10
491.452445024
 20
324.686989215
 10
491.397711757
 20
324.541940222
 10
491.327685236
 20
324.400244001
 10
491.31207139
 20
324.364357475
 10
483.01231527
 20
308.758587121
 10
479.702545829
 20
302.525138072
 10
491.047702469
 20
304.063278049
  0
LWPOLYLINE
  5
688
330
1F
100
AcDbEntity
  8
outline
 67
0
100
AcDbPolyline
 90
4
 70
0
 10
480.10559785
 20
313.941427583
 10
485.176868478
 20
323.476778977
 10
467.312675452
 20
325.547263925
 10
480.10559785
 20
313.941427583
  0
LWPOLYLINE
  5
689
330
1F
100
AcDbEntity
  8
outline
 67
0
100
AcDbPolyline
 90
10
 70
0
 10
487.595270242
 20
379.513367602
 10
478.457561097
 20
383.038941358
 10
472.4932419
 20
361.355772397
 10
475.221204661
 20
357.037727999
 10
475.471082547
 20
356.517462024
 10
476.90850814
 20
352.348994159
 10
476.97975345
 20
352.101776629
 10
477.888185869
 20
348.206302105
 10
485.10725971
 20
371.008618839
 10
487.595270242
 20
379.513367602
  0
LWPOLYLINE
  5
68A
330
1F
100
AcDbEntity
  8
outline
 67
0
100
AcDbPolyline
 90
15
 70
0
 10
423.888534813
 20
367.809215705
 10
426.449079976
 20
366.839004225
 10
426.503621876
 20
366.815215567
 10
426.559296789
 20
366.794215015
 10
433.620876247
 20
363.726836924
 10
435.713446359
 20
362.859025773
 10
444.46576649
 20
394.954591453
 10
439.533232517
 20
397.54909059
 10
435.046811704
 20
399.010611705
 10
434.996563217
 20
399.029755859
 10
434.945335528
 20
399.046100063
 10
428.657428054
 20
401.398027234
 10
428.591606969
 20
400.52059353
 10
428.573104008
 20
400.351394699
 10
423.888534813
 20
367.809215705
  0
LWPOLYLINE
  5
68B
330
1F
100
AcDbEntity
  8
outline
 67
0
100
AcDbPolyline
 90
5
 70
0
 10
448.057299112
 20
389.120096151
 10
440.370813257
 20
360.933043127
 10
448.208338653
 20
357.703807472
 10
454.389960874
 20
375.974955442
 10
448.057299112
 20
389.120096151
  0
LWPOLYLINE
  5
68C
330
1F
100
AcDbEntity
  8
outline
 67
0
100
AcDbPolyline
 90
31
 70
0
 10
452.839689304
 20
355.791276246
 10
454.203425751
 20
355.22666889
 10
472.673629902
 20
348.551058524
 10
472.139659751
 20
350.840790896
 10
470.838934741
 20
354.612833382
 10
467.939980518
 20
359.201537165
 10
460.175150611
 20
364.715516022
 10
460.163191388
 20
364.724924269
 10
460.150468143
 20
364.733270356
 10
460.066805482
 20
364.800750464
 10
459.982328341
 20
364.867208108
 10
459.971348874
 20
364.87774326
 10
459.959504954
 20
364.887296255
 10
459.882859359
 20
364.962651802
 10
459.805302987
 20
365.037069642
 10
459.795409015
 20
365.04863024
 10
459.784558484
 20
365.059298142
 10
459.715668094
 20
365.141803413
 10
459.6457794
 20
365.223464765
 10
459.637066207
 20
365.235939475
 10
459.627313562
 20
365.247619545
 10
459.566841829
 20
365.336479971
 10
459.50529388
 20
365.42459839
 10
459.497845379
 20
365.437867073
 10
459.489284543
 20
365.450446828
 10
459.437813842
 20
365.544806632
 10
459.385199379
 20
365.638533491
 10
459.379087303
 20
365.652468363
 10
459.371800721
 20
365.665826651
 10
457.494465709
 20
369.549494626
 10
452.839689304
 20
355.791276246
  0
LWPOLYLINE
  5
68D
330
1F
100
AcDbEntity
  8
outline
 67
0
100
AcDbPolyline
 90
6
 70
0
 10
463.59386224
 20
368.420254425
 10
468.326340545
 20
365.059616056
 10
473.74224857
 20
384.749046631
 10
463.10565255
 20
388.3224055
 10
459.748179109
 20
376.375870405
 10
463.59386224
 20
368.420254425
  0
LWPOLYLINE
  5
68E
330
1F
100
AcDbEntity
  8
outline
 67
0
100
AcDbPolyline
 90
17
 70
0
 10
510.742715124
 20
382.142551322
 10
512.082648766
 20
380.547111742
 10
512.661391863
 20
379.124312367
 10
512.812355628
 20
377.090021579
 10
517.34727056
 20
377.119562128
 10
518.182310762
 20
376.981741213
 10
522.033332316
 20
375.646907695
 10
525.674497288
 20
385.385767295
 10
533.483430037
 20
424.455415648
 10
526.219835172
 20
424.658326728
 10
525.925015148
 20
423.983341972
 10
525.136679527
 20
422.986004747
 10
523.314400387
 20
421.615498796
 10
521.909336016
 20
421.115404743
 10
521.589321458
 20
421.102902045
 10
515.989403668
 20
401.089553891
 10
510.742715124
 20
382.142551322
  0
LWPOLYLINE
  5
68F
330
1F
100
AcDbEntity
  8
outline
 67
0
100
AcDbPolyline
 90
7
 70
0
 10
538.554213412
 20
424.314771891
 10
530.538111086
 20
384.208612817
 10
530.428283175
 20
383.823092798
 10
526.7592812
 20
374.009778822
 10
537.334080271
 20
370.348601455
 10
550.770940487
 20
423.979351542
 10
538.554213412
 20
424.314771891
  0
LWPOLYLINE
  5
690
330
1F
100
AcDbEntity
  8
outline
 67
0
100
AcDbPolyline
 90
5
 70
0
 10
555.887001855
 20
423.8257618
 10
542.077133665
 20
368.706219159
 10
552.417064379
 20
365.125135632
 10
569.491083968
 20
423.363461595
 10
555.887001855
 20
423.8257618
  0
LWPOLYLINE
  5
691
330
1F
100
AcDbEntity
  8
outline
 67
0
100
AcDbPolyline
 90
10
 70
0
 10
555.814799857
 20
359.001754344
 10
549.451674085
 20
337.873117319
 10
550.332690898
 20
337.572908846
 10
555.088945762
 20
335.969455366
 10
558.141352172
 20
339.595201901
 10
558.082353892
 20
349.552128832
 10
558.175197984
 20
350.242080238
 10
560.371631459
 20
358.073159437
 10
557.090189008
 20
358.743484295
 10
555.814799857
 20
359.001754344
  0
LWPOLYLINE
  5
692
330
1F
100
AcDbEntity
  8
outline
 67
0
100
AcDbPolyline
 90
5
 70
0
 10
569.200061136
 20
358.142757935
 10
572.414072223
 20
355.186633339
 10
573.32325756
 20
358.098619695
 10
573.492387868
 20
358.651751749
 10
569.200061136
 20
358.142757935
  0
LWPOLYLINE
  5
693
330
1F
100
AcDbEntity
  8
outline
 67
0
100
AcDbPolyline
 90
9
 70
0
 10
563.136349499
 20
340.454298269
 10
563.663907668
 20
340.265684946
 10
569.61601563
 20
345.903069674
 10
570.36468697
 20
348.589737729
 10
570.384320924
 20
348.65657973
 10
570.770117407
 20
349.905371411
 10
564.810989391
 20
355.386349674
 10
563.084348897
 20
349.230252254
 10
563.136349499
 20
340.454298269
  0
LWPOLYLINE
  5
694
330
1F
100
AcDbEntity
  8
outline
 67
0
100
AcDbPolyline
 90
11
 70
0
 10
505.207961524
 20
373.293868786
 10
507.007466984
 20
373.670958001
 10
507.939371692
 20
375.193165526
 10
507.734827592
 20
377.949470519
 10
506.653709427
 20
379.23674226
 10
505.461708141
 20
379.445606518
 10
504.216139041
 20
378.656077684
 10
503.643619416
 20
377.536543148
 10
503.526253536
 20
375.772302262
 10
504.297692745
 20
373.934028142
 10
505.207961524
 20
373.293868786
  0
LWPOLYLINE
  5
695
330
1F
100
AcDbEntity
  8
outline
 67
0
100
AcDbPolyline
 90
19
 70
0
 10
580.867511454
 20
378.026267874
 10
582.68379083
 20
378.94595658
 10
584.055271158
 20
381.123583229
 10
587.592026743
 20
388.355064846
 10
588.311003213
 20
389.236300808
 10
594.319747211
 20
393.870690738
 10
595.460585503
 20
395.743800534
 10
596.172924444
 20
397.235091893
 10
595.731582633
 20
401.499297703
 10
594.330789639
 20
403.315626208
 10
590.794063085
 20
405.230314573
 10
581.98909608
 20
404.605932741
 10
582.411911594
 20
400.826366613
 10
582.42703415
 20
400.591752022
 10
582.561879069
 20
392.811668849
 10
582.370345626
 20
391.807764487
 10
578.978775874
 20
383.658473045
 10
578.936336587
 20
381.368882649
 10
580.867511454
 20
378.026267874
  0
LWPOLYLINE
  5
696
330
1F
100
AcDbEntity
  8
outline
 67
0
100
AcDbPolyline
 90
12
 70
0
 10
519.044069038
 20
428.658135865
 10
519.114605375
 20
427.71529738
 10
520.039573219
 20
426.175954811
 10
520.262255633
 20
426.054869249
 10
520.933465343
 20
426.081092844
 10
521.606088289
 20
426.586961418
 10
522.060655023
 20
427.627683186
 10
521.915536819
 20
429.393657442
 10
521.254343212
 20
430.278073881
 10
520.341002712
 20
430.457790016
 10
519.376388725
 20
429.685043665
 10
519.044069038
 20
428.658135865
  0
LWPOLYLINE
  5
697
330
1F
100
AcDbEntity
  8
outline
 67
0
100
AcDbPolyline
 90
4
 70
0
 10
456.467518012
 20
383.182860914
 10
458.35996004
 20
389.916532976
 10
452.232058959
 20
391.974694002
 10
456.467518012
 20
383.182860914
  0
LWPOLYLINE
  5
698
330
1F
100
AcDbEntity
  8
outline
 67
0
100
AcDbPolyline
 90
14
 70
0
 10
374.453464673
 20
421.200406608
 10
374.739075516
 20
420.923584954
 10
390.857010061
 20
402.597972397
 10
390.967125681
 20
402.463637312
 10
400.316801508
 20
390.213035256
 10
400.518678944
 20
389.903501789
 10
409.111725354
 20
374.320376825
 10
409.363149817
 20
373.654729732
 10
410.375671713
 20
369.091593319
 10
418.974604224
 20
368.765150957
 10
423.611986159
 20
400.979535397
 10
423.780302596
 20
403.223286373
 10
373.340879598
 20
422.118922361
 10
374.453464673
 20
421.200406608
  0
LWPOLYLINE
  5
699
330
1F
100
AcDbEntity
  8
outline
 67
0
100
AcDbPolyline
 90
47
 70
0
 10
595.347792229
 20
299.808039585
 10
595.459492608
 20
299.888464937
 10
624.153959907
 20
319.372221536
 10
624.801718344
 20
319.686709567
 10
649.076515061
 20
327.394841004
 10
665.721392434
 20
341.363638972
 10
672.137335158
 20
360.845597629
 10
674.73424327
 20
376.3883401
 10
675.134753541
 20
377.385070177
 10
687.668865866
 20
395.761146793
 10
688.040587711
 20
396.191380994
 10
699.382679262
 20
406.636871729
 10
711.005437935
 20
419.359207202
 10
712.343283691
 20
422.674278502
 10
712.659851457
 20
423.296089214
 10
722.222134842
 20
438.608097625
 10
729.815018896
 20
450.762383866
 10
729.984495317
 20
451.012175369
 10
749.269476571
 20
477.248039913
 10
774.56451681
 20
512.187795541
 10
778.023177251
 20
519.630961707
 10
787.636336883
 20
549.383902575
 10
787.668875774
 20
549.480395185
 10
792.376831424
 20
562.876007987
 10
806.036802488
 20
614.562924705
 10
806.116993867
 20
614.828662031
 10
811.571533976
 20
630.869090874
 10
814.266138619
 20
638.77107078
 10
814.056960321
 20
638.499511796
 10
811.273963026
 20
634.893730496
 10
807.143162053
 20
626.978518934
 10
806.968472291
 20
626.676652083
 10
791.547514312
 20
602.523238867
 10
791.356082239
 20
602.249342423
 10
773.547597583
 20
578.909983026
 10
773.385758119
 20
578.711403399
 10
739.318523359
 20
539.54164222
 10
717.165950524
 20
505.280913911
 10
696.123644771
 20
472.686718564
 10
675.848916654
 20
438.59977025
 10
675.557622862
 20
438.17491622
 10
646.981283139
 20
401.766380679
 10
616.172824126
 20
362.271259281
 10
580.74032104
 20
295.574998899
 10
580.711516109
 20
295.521754435
 10
574.180109584
 20
283.664066271
 10
595.347792229
 20
299.808039585
  0
LWPOLYLINE
  5
69A
330
1F
100
AcDbEntity
  8
outline
 67
0
100
AcDbPolyline
 90
12
 70
0
 10
393.216740826
 20
359.499493758
 10
393.186128556
 20
359.414128411
 10
392.923207547
 20
358.72079053
 10
399.261867445
 20
356.379644587
 10
399.548220839
 20
356.252978463
 10
404.43225393
 20
353.715685088
 10
404.704061363
 20
353.551772894
 10
406.822742634
 20
352.083002793
 10
407.963735916
 20
351.988654716
 10
406.095018071
 20
364.823047251
 10
396.221440753
 20
368.382255999
 10
393.216740826
 20
359.499493758
  0
LWPOLYLINE
  5
69B
330
1F
100
AcDbEntity
  8
outline
 67
0
100
AcDbPolyline
 90
19
 70
0
 10
801.198763952
 20
552.440106227
 10
814.928286575
 20
561.420137102
 10
821.917055457
 20
569.920964602
 10
826.709014972
 20
584.009204265
 10
826.825660757
 20
584.311407631
 10
829.378657215
 20
590.203570158
 10
829.46259044
 20
590.643419323
 10
829.528367972
 20
590.908520167
 10
831.092365935
 20
596.002981372
 10
831.389642426
 20
596.637078481
 10
835.409724836
 20
602.787518608
 10
835.552067167
 20
602.983802061
 10
837.774308179
 20
605.754769156
 10
817.705196725
 20
624.057664756
 10
813.735770079
 20
612.384580612
 10
800.070585704
 20
560.677937644
 10
799.97707867
 20
560.373687072
 10
797.147287365
 20
552.322041848
 10
801.198763952
 20
552.440106227
  0
LWPOLYLINE
  5
69C
330
1F
100
AcDbEntity
  8
outline
 67
0
100
AcDbPolyline
 90
24
 70
0
 10
821.468795234
 20
556.778525662
 10
820.719534824
 20
555.867158637
 10
819.819206025
 20
555.059867214
 10
804.633118045
 20
545.127144666
 10
802.56011702
 20
544.476381429
 10
794.380917768
 20
544.238030779
 10
785.560284616
 20
516.937976828
 10
785.381522536
 20
516.482166754
 10
781.657498921
 20
508.467929146
 10
781.270043858
 20
507.80787451
 10
755.741059543
 20
472.544974552
 10
755.723981024
 20
472.52156319
 10
736.51987227
 20
446.39572001
 10
733.570053801
 20
441.67380703
 10
744.653341226
 20
445.238183825
 10
767.858433143
 20
453.299891483
 10
770.326327663
 20
456.250363157
 10
781.69165675
 20
477.541252431
 10
781.949951167
 20
477.931955351
 10
797.781675279
 20
497.591924633
 10
807.482463592
 20
509.647579264
 10
814.962372194
 20
536.425619863
 10
814.988980746
 20
536.514481751
 10
821.468795234
 20
556.778525662
  0
LWPOLYLINE
  5
69D
330
1F
100
AcDbEntity
  8
outline
 67
0
100
AcDbPolyline
 90
25
 70
0
 10
746.266784651
 20
440.505569074
 10
746.211748368
 20
440.487161909
 10
729.464035136
 20
435.101110089
 10
729.007496726
 20
434.370307611
 10
719.630880034
 20
419.355605801
 10
712.280021399
 20
401.140785162
 10
712.099325108
 20
400.753928143
 10
697.552112582
 20
373.505034642
 10
682.815293075
 20
338.40371117
 10
682.740064785
 20
338.235491578
 10
677.127394196
 20
326.422801194
 10
676.868326219
 20
325.959597025
 10
669.539956778
 20
314.684357992
 10
668.621446914
 20
313.691009837
 10
647.570971001
 20
297.535336714
 10
623.33688436
 20
277.804655442
 10
624.064764012
 20
277.744602164
 10
637.777563234
 20
284.720236907
 10
649.690248887
 20
294.873433773
 10
675.914915647
 20
317.240415388
 10
730.798578886
 20
394.583399663
 10
739.95543742
 20
419.626625594
 10
740.383759913
 20
420.369660197
 10
761.638418129
 20
445.845845931
 10
746.266784651
 20
440.505569074
  0
LWPOLYLINE
  5
69E
330
1F
100
AcDbEntity
  8
outline
 67
0
100
AcDbPolyline
 90
4
 70
0
 10
53.3848121557
 20
628.799678738
 10
53.5149185581
 20
630.13138096
 10
43.3406220469
 20
628.629809087
 10
53.3848121557
 20
628.799678738
  0
LWPOLYLINE
  5
69F
330
1F
100
AcDbEntity
  8
outline
 67
0
100
AcDbPolyline
 90
5
 70
0
 10
61.7219370617
 20
631.860449064
 10
61.4211600454
 20
628.781852976
 10
64.3292055156
 20
628.729423995
 10
64.4254001081
 20
632.759783199
 10
61.7219370617
 20
631.860449064
  0
LWPOLYLINE
  5
6A0
330
1F
100
AcDbEntity
  8
outline
 67
0
100
AcDbPolyline
 90
6
 70
0
 10
60.6432579812
 20
620.794577661
 10
59.670594942
 20
610.770569862
 10
63.7863862677
 20
615.616798703
 10
64.3084613611
 20
616.081150329
 10
64.2678598868
 20
620.729229926
 10
60.6432579812
 20
620.794577661
  0
LWPOLYLINE
  5
6A1
330
1F
100
AcDbEntity
  8
outline
 67
0
100
AcDbPolyline
 90
13
 70
0
 10
69.4663242999
 20
634.414763955
 10
69.3367915559
 20
628.987603518
 10
76.8309527867
 20
629.791404803
 10
84.5504970737
 20
630.73154945
 10
85.2002854585
 20
630.757433157
 10
94.4296182025
 20
630.373597231
 10
94.9790554469
 20
630.595040064
 10
92.6047735296
 20
632.447003003
 10
91.5611134599
 20
633.671401196
 10
87.3775791949
 20
641.267961448
 10
81.8061036581
 20
638.357368444
 10
81.1529657582
 20
638.086659489
 10
69.4663242999
 20
634.414763955
  0
LWPOLYLINE
  5
6A2
330
1F
100
AcDbEntity
  8
outline
 67
0
100
AcDbPolyline
 90
4
 70
0
 10
69.2662606054
 20
620.934153907
 10
69.2791499286
 20
619.458576954
 10
71.925031649
 20
621.219325725
 10
69.2662606054
 20
620.934153907
  0
LWPOLYLINE
  5
6A3
330
1F
100
AcDbEntity
  8
outline
 67
0
100
AcDbPolyline
 90
5
 70
0
 10
100.688963101
 20
636.287121303
 10
103.568360608
 20
643.388629097
 10
95.5748906036
 20
642.966870631
 10
98.1725803614
 20
638.249924261
 10
100.688963101
 20
636.287121303
  0
LWPOLYLINE
  5
6A4
330
1F
100
AcDbEntity
  8
outline
 67
0
100
AcDbPolyline
 90
36
 70
0
 10
107.314669569
 20
652.628215584
 10
109.446442633
 20
657.885844305
 10
111.052017741
 20
662.408691208
 10
114.682003357
 20
680.41184443
 10
116.719616785
 20
694.042832972
 10
118.365238493
 20
708.890068455
 10
119.046986503
 20
726.174757777
 10
119.296613446
 20
741.907653512
 10
116.931361015
 20
758.281087197
 10
113.898991915
 20
769.978134129
 10
108.045400602
 20
782.236893771
 10
99.6817768748
 20
793.615974659
 10
93.4953289241
 20
798.447292885
 10
100.301805925
 20
789.753777883
 10
100.506579937
 20
789.467060579
 10
108.659898145
 20
776.916977583
 10
109.039881894
 20
776.171412457
 10
115.287686305
 20
759.896896054
 10
115.515119582
 20
759.015448766
 10
117.960978062
 20
741.466113949
 10
117.998205869
 20
740.821736457
 10
117.626626785
 20
724.711118949
 10
117.603162333
 20
724.361059669
 10
115.261808501
 20
703.316154653
 10
115.251841782
 20
703.234263712
 10
113.298058612
 20
688.453656652
 10
113.18379964
 20
687.897144398
 10
110.1817301
 20
677.198741463
 10
110.040592282
 20
676.784413084
 10
104.954387722
 20
664.162287816
 10
104.926328563
 20
664.094457188
 10
100.365977071
 20
653.350369443
 10
99.6161310888
 20
652.192527992
 10
98.6392297592
 20
651.139681922
 10
103.032459447
 20
651.371481355
 10
107.314669569
 20
652.628215584
  0
LWPOLYLINE
  5
6A5
330
1F
100
AcDbEntity
  8
outline
 67
0
100
AcDbPolyline
 90
5
 70
0
 10
122.912211341
 20
648.868347894
 10
121.895068643
 20
646.04315112
 10
124.640866061
 20
649.106087459
 10
124.813233861
 20
649.426256077
 10
122.912211341
 20
648.868347894
  0
LWPOLYLINE
  5
6A6
330
1F
100
AcDbEntity
  8
outline
 67
0
100
AcDbPolyline
 90
55
 70
0
 10
116.485414413
 20
631.017395446
 10
115.752471044
 20
628.981585482
 10
122.831377718
 20
627.121996002
 10
122.929873937
 20
627.094771972
 10
130.729222349
 20
624.831431864
 10
137.570149129
 20
643.202837923
 10
137.725015743
 20
643.563538739
 10
137.914491494
 20
643.907323099
 10
138.136751627
 20
644.230880172
 10
138.389655656
 20
644.531093927
 10
138.670767977
 20
644.805073141
 10
138.977381324
 20
645.050179244
 10
139.306542844
 20
645.264051731
 10
139.65508253
 20
645.444630893
 10
140.019643755
 20
645.590177653
 10
140.396715596
 20
645.699290317
 10
140.782666644
 20
645.77091807
 10
141.17377998
 20
645.804371098
 10
141.566288968
 20
645.799327229
 10
141.956413533
 20
645.75583504
 10
142.340396561
 20
645.674313383
 10
142.714540086
 20
645.555547357
 10
143.075240902
 20
645.400680744
 10
143.419025262
 20
645.211204993
 10
143.742582335
 20
644.98894486
 10
144.04279609
 20
644.736040831
 10
144.316775304
 20
644.45492851
 10
144.561881407
 20
644.148315163
 10
144.775753894
 20
643.819153643
 10
144.956333056
 20
643.470613957
 10
145.101879816
 20
643.106052732
 10
145.21099248
 20
642.728980891
 10
145.282620233
 20
642.343029843
 10
145.316073261
 20
641.951916507
 10
145.311029393
 20
641.559407519
 10
145.267537203
 20
641.169282954
 10
145.186015547
 20
640.785299926
 10
145.067249521
 20
640.411156401
 10
138.616638451
 20
623.087948727
 10
146.848450873
 20
621.688161
 10
152.751226465
 20
621.587730851
 10
157.47580448
 20
623.524806856
 10
163.906545796
 20
637.816716029
 10
165.045357156
 20
642.687379365
 10
164.141545774
 20
648.200139344
 10
162.060078249
 20
652.448179482
 10
159.480946592
 20
655.245911962
 10
155.949043682
 20
656.49942633
 10
152.466655212
 20
656.487785623
 10
135.544078385
 20
652.482102855
 10
131.459177906
 20
644.894508511
 10
130.915567351
 20
644.120618838
 10
124.082535346
 20
636.498373333
 10
123.409147951
 20
635.899325971
 10
116.485414413
 20
631.017395446
  0
LWPOLYLINE
  5
6A7
330
1F
100
AcDbEntity
  8
outline
 67
0
100
AcDbPolyline
 90
112
 70
0
 10
113.031853261
 20
621.424847779
 10
105.399403569
 20
600.225096483
 10
100.520519255
 20
583.996362841
 10
104.618211424
 20
579.330615459
 10
116.637022475
 20
575.786775402
 10
123.224964251
 20
574.720491643
 10
123.817257092
 20
574.547487553
 10
131.68833757
 20
571.146010159
 10
154.778588931
 20
561.88080038
 10
155.792817261
 20
561.130999406
 10
163.021354361
 20
552.177031862
 10
176.729781517
 20
540.653769516
 10
176.837951972
 20
540.557355938
 10
220.849655839
 20
498.978761657
 10
221.09211299
 20
498.714289905
 10
242.236737566
 20
472.034864151
 10
250.441205456
 20
469.418309063
 10
250.441214749
 20
469.418305589
 10
250.441224337
 20
469.418303041
 10
266.17279002
 20
464.401081202
 10
273.581572825
 20
462.041443717
 10
278.948208979
 20
461.044228857
 10
278.471358509
 20
461.664678823
 10
274.660330867
 20
471.194051657
 10
274.481923327
 20
472.081139011
 10
274.186420164
 20
489.993270451
 10
274.186467379
 20
490.020357135
 10
274.186089459
 20
490.027641561
 10
274.186495333
 20
490.036393767
 10
274.186579119
 20
490.084460283
 10
275.058185692
 20
533.697953904
 10
276.33372048
 20
596.869360405
 10
276.26307427
 20
611.59817594
 10
260.357362634
 20
611.37283363
 10
256.505991792
 20
595.579424526
 10
254.444964203
 20
578.757329418
 10
254.40321577
 20
578.515569237
 10
254.337971725
 20
578.27906526
 10
254.249860405
 20
578.050095149
 10
254.139730369
 20
577.830864011
 10
254.00864223
 20
577.623483163
 10
253.857858438
 20
577.429949794
 10
253.688831125
 20
577.252127737
 10
253.503188115
 20
577.091729516
 10
253.302717251
 20
576.950299853
 10
253.089349178
 20
576.829200794
 10
252.865138748
 20
576.729598588
 10
252.632245229
 20
576.652452459
 10
252.392911512
 20
576.598505366
 10
252.149442513
 20
576.56827685
 10
251.904182972
 20
576.562058027
 10
251.65949487
 20
576.579908789
 10
251.41773469
 20
576.621657223
 10
251.181230713
 20
576.686901267
 10
250.952260601
 20
576.775012588
 10
250.733029464
 20
576.885142624
 10
250.525648615
 20
577.016230763
 10
250.332115246
 20
577.167014554
 10
250.154293189
 20
577.336041868
 10
249.993894968
 20
577.521684878
 10
249.852465305
 20
577.722155741
 10
249.731366246
 20
577.935523814
 10
249.63176404
 20
578.159734244
 10
249.554617911
 20
578.392627764
 10
249.500670818
 20
578.63196148
 10
249.470442302
 20
578.875430479
 10
249.46422348
 20
579.120690021
 10
249.482074241
 20
579.365378122
 10
251.560950197
 20
596.3331515
 10
251.613570254
 20
596.621418871
 10
255.858858175
 20
614.030173221
 10
254.243232871
 20
631.334361815
 10
252.275651261
 20
647.304986558
 10
248.370382894
 20
647.350453243
 10
247.954075858
 20
647.390282001
 10
235.555860636
 20
649.635118601
 10
209.195692392
 20
646.953546426
 10
194.964631613
 20
644.670966868
 10
194.397713306
 20
644.645271061
 10
186.282322017
 20
645.201645072
 10
184.809787149
 20
645.811960572
 10
180.588225063
 20
649.495019361
 10
180.159809981
 20
649.979902842
 10
176.728389624
 20
655.062090554
 10
176.38775501
 20
655.805698927
 10
174.738706926
 20
661.876545791
 10
174.667237629
 20
662.813858315
 10
174.674289507
 20
662.875981664
 10
173.460081345
 20
661.841672537
 10
172.570816154
 20
661.268044731
 10
171.158302442
 20
660.602670204
 10
169.472072081
 20
658.187092487
 10
169.416067183
 20
655.617133128
 10
171.585307443
 20
651.189958751
 10
171.940623622
 20
650.077103008
 10
173.068515408
 20
643.197573918
 10
173.016167246
 20
641.639737571
 10
171.608236527
 20
635.6180585
 10
171.361028228
 20
634.887411212
 10
164.116791723
 20
618.787561279
 10
161.986459163
 20
616.727880967
 10
155.024042474
 20
613.873291568
 10
153.438583634
 20
613.574878289
 10
146.408976924
 20
613.694480406
 10
145.806464577
 20
613.750508239
 10
132.511053658
 20
616.011341222
 10
132.421296452
 20
616.031925682
 10
132.159915141
 20
616.087418336
 10
132.109390412
 20
616.103456623
 10
132.066819887
 20
616.113219531
 10
120.749363177
 20
619.397500773
 10
113.031853261
 20
621.424847779
  0
LWPOLYLINE
  5
6A8
330
1F
100
AcDbEntity
  8
outline
 67
0
100
AcDbPolyline
 90
37
 70
0
 10
260.661429763
 20
616.377643227
 10
276.197003091
 20
616.597741646
 10
275.233620709
 20
661.091197342
 10
275.233035928
 20
661.147592007
 10
275.26199525
 20
692.946087285
 10
274.983014052
 20
702.308139953
 10
253.820870948
 20
708.371126039
 10
247.621240664
 20
710.143459562
 10
225.970553278
 20
711.889969166
 10
218.846228637
 20
711.317045964
 10
210.728713887
 20
708.315775152
 10
202.187911173
 20
703.235107891
 10
191.57308131
 20
693.628312118
 10
191.432131349
 20
692.689329776
 10
191.237008915
 20
691.919959199
 10
188.638913905
 20
684.752549791
 10
188.569211525
 20
684.573766732
 10
185.337197491
 20
676.837463063
 10
185.249396806
 20
676.642166672
 10
181.723049085
 20
669.328456668
 10
180.713834677
 20
668.020698102
 10
180.245070635
 20
667.621386894
 10
179.689307576
 20
662.725405956
 10
181.104244802
 20
657.516420659
 10
184.121128568
 20
653.048192342
 10
187.463216097
 20
650.132422161
 10
194.454773066
 20
649.653095847
 10
208.475027735
 20
651.901863328
 10
208.61793806
 20
651.920577495
 10
235.400961486
 20
654.645165963
 10
236.099387207
 20
654.618004028
 10
248.63841598
 20
652.347671547
 10
254.518811385
 20
652.279209649
 10
256.970947837
 20
650.08506799
 10
259.210220926
 20
631.909155985
 10
259.218154636
 20
631.835871645
 10
260.661429763
 20
616.377643227
  0
LWPOLYLINE
  5
6A9
330
1F
100
AcDbEntity
  8
outline
 67
0
100
AcDbPolyline
 90
19
 70
0
 10
283.430663412
 20
612.819973516
 10
291.844382524
 20
603.912194772
 10
291.997639869
 20
603.733830601
 10
305.495608236
 20
586.441469494
 10
329.240212306
 20
558.781140149
 10
367.588027408
 20
578.658449765
 10
365.383466078
 20
581.56111379
 10
365.35908701
 20
581.593761796
 10
357.72817247
 20
591.988576825
 10
347.190357775
 20
604.165810906
 10
332.581418329
 20
619.660215032
 10
330.595582519
 20
621.149721215
 10
325.266579329
 20
623.891595901
 10
314.459200651
 20
623.152071445
 10
305.073256908
 20
621.363699346
 10
297.018956432
 20
618.530065442
 10
289.063123877
 20
614.4152911
 10
288.573165524
 20
614.224162207
 10
283.430663412
 20
612.819973516
  0
LWPOLYLINE
  5
6AA
330
1F
100
AcDbEntity
  8
outline
 67
0
100
AcDbPolyline
 90
35
 70
0
 10
330.63623327
 20
631.120185607
 10
331.312685977
 20
631.397334682
 10
332.308555919
 20
631.583507041
 10
345.778598931
 20
631.324499409
 10
346.005086095
 20
631.309840249
 10
357.531843472
 20
630.036271701
 10
366.931884535
 20
629.282544104
 10
366.935920762
 20
629.279920891
 10
366.998404276
 20
629.276314721
 10
367.240770096
 20
629.238239456
 10
367.478236829
 20
629.176591528
 10
376.914988667
 20
626.225513703
 10
377.598936638
 20
625.890016542
 10
385.803358067
 20
620.168002911
 10
394.809698215
 20
615.051685333
 10
399.228746319
 20
613.378612515
 10
393.003342948
 20
623.088372517
 10
392.792933585
 20
623.493886623
 10
384.383657965
 20
644.119713224
 10
384.2726591
 20
644.45974231
 10
378.15260842
 20
669.049040545
 10
378.132523253
 20
669.136391756
 10
374.337922234
 20
687.108669614
 10
374.284371737
 20
687.581751881
 10
374.044376042
 20
701.413011478
 10
374.064902046
 20
701.778989887
 10
374.950073729
 20
708.581185197
 10
368.931606431
 20
712.243096383
 10
360.857449843
 20
716.079851949
 10
356.990295976
 20
717.453562942
 10
347.883675633
 20
676.17538166
 10
347.845088249
 20
676.023321903
 10
342.636796145
 20
657.904103659
 10
342.514673379
 20
657.57057821
 10
330.63623327
 20
631.120185607
  0
LWPOLYLINE
  5
6AB
330
1F
100
AcDbEntity
  8
outline
 67
0
100
AcDbPolyline
 90
14
 70
0
 10
371.878084229
 20
622.561877991
 10
374.825227569
 20
617.143681224
 10
374.840610317
 20
617.114956289
 10
380.933749662
 20
605.556578177
 10
390.65343987
 20
587.312810455
 10
415.661274996
 20
595.767578219
 10
405.075873501
 20
605.245296365
 10
399.010900866
 20
608.114732224
 10
392.85811378
 20
610.444206941
 10
392.508451638
 20
610.60851044
 10
383.233169099
 20
615.877608688
 10
383.037907013
 20
616.000793487
 10
375.054815374
 20
621.568444975
 10
371.878084229
 20
622.561877991
  0
LWPOLYLINE
  5
6AC
330
1F
100
AcDbEntity
  8
outline
 67
0
100
AcDbPolyline
 90
25
 70
0
 10
421.095518621
 20
597.613293384
 10
438.485500789
 20
603.599341244
 10
440.472327973
 20
625.788379948
 10
440.542502973
 20
626.193323761
 10
441.429867826
 20
629.613115404
 10
442.086347896
 20
656.496094519
 10
440.369682003
 20
677.995540627
 10
436.320209798
 20
704.643252552
 10
436.295282615
 20
705.150110689
 10
437.288344135
 20
724.037734611
 10
429.419773683
 20
744.781900512
 10
429.325600062
 20
745.088019268
 10
425.302283595
 20
761.940584859
 10
425.252878621
 20
762.214032638
 10
423.378174725
 20
777.360885362
 10
423.305819815
 20
777.897429229
 10
380.047488756
 20
709.005821249
 10
379.046811771
 20
701.316013236
 10
379.279470375
 20
687.90759959
 10
383.015410202
 20
670.213157329
 10
389.081329471
 20
645.84134968
 10
397.336311126
 20
625.593967156
 10
404.22103093
 20
614.855871487
 10
408.350564477
 20
609.024583094
 10
421.095518621
 20
597.613293384
  0
LWPOLYLINE
  5
6AD
330
1F
100
AcDbEntity
  8
outline
 67
0
100
AcDbPolyline
 90
31
 70
0
 10
446.418303136
 20
629.161738761
 10
446.417953467
 20
629.120325738
 10
446.409299621
 20
629.039466715
 10
446.403327725
 20
628.958365501
 10
446.396252673
 20
628.91755981
 10
446.391845501
 20
628.876380476
 10
446.375307756
 20
628.796759037
 10
446.361415307
 20
628.716633695
 10
446.350374666
 20
628.676717972
 10
446.341952436
 20
628.636168906
 10
445.434015115
 20
625.137093579
 10
443.643863927
 20
605.144547512
 10
488.688960579
 20
617.731853215
 10
488.894285509
 20
617.779992861
 10
496.853892915
 20
619.295149477
 10
494.748832988
 20
624.200195479
 10
489.980807299
 20
633.29156073
 10
489.876175735
 20
633.517825057
 10
482.232944011
 20
652.47407247
 10
482.222341584
 20
652.500810403
 10
474.56524448
 20
672.139974395
 10
458.257841195
 20
688.297264298
 10
457.862407469
 20
688.805928978
 10
441.872501738
 20
715.997229603
 10
441.30177745
 20
705.142287082
 10
445.32629497
 20
678.658790445
 10
445.346738959
 20
678.482178567
 10
447.080850646
 20
656.764242127
 10
447.088037084
 20
656.504226386
 10
446.421344463
 20
629.203041437
 10
446.418303136
 20
629.161738761
  0
LWPOLYLINE
  5
6AE
330
1F
100
AcDbEntity
  8
outline
 67
0
100
AcDbPolyline
 90
28
 70
0
 10
443.301900186
 20
599.857445034
 10
442.994929828
 20
579.999367969
 10
443.044906326
 20
573.605611022
 10
451.096026181
 20
564.06746261
 10
463.340330033
 20
550.073751652
 10
467.947017396
 20
547.977346383
 10
467.984156714
 20
547.958192314
 10
468.022457741
 20
547.941481881
 10
471.89102039
 20
546.022477218
 10
479.940920322
 20
542.410705509
 10
485.757241068
 20
543.359069873
 10
491.195249189
 20
544.608306296
 10
491.257683638
 20
544.621811588
 10
514.379888215
 20
549.315014208
 10
518.364958011
 20
554.160183486
 10
521.568749994
 20
560.818539379
 10
522.643679664
 20
566.332808954
 10
522.228685924
 20
573.497387644
 10
520.701916245
 20
581.410264939
 10
517.448399743
 20
595.166756969
 10
514.573834162
 20
603.971821208
 10
511.805746916
 20
608.285988959
 10
510.993590006
 20
608.995316595
 10
505.951155986
 20
611.551122596
 10
505.888297715
 20
611.584112893
 10
499.969594412
 20
614.798458863
 10
489.932953524
 20
612.88792709
 10
443.301900186
 20
599.857445034
  0
LWPOLYLINE
  5
6AF
330
1F
100
AcDbEntity
  8
outline
 67
0
100
AcDbPolyline
 90
42
 70
0
 10
507.677007497
 20
616.302464545
 10
508.243327903
 20
615.994905673
 10
513.532935178
 20
613.313817539
 10
514.047222008
 20
612.96684727
 10
515.362495355
 20
611.818104063
 10
515.822076855
 20
611.285220592
 10
518.955088207
 20
606.402304942
 10
519.227523629
 20
605.828111199
 10
522.233856488
 20
596.619431417
 10
522.290181497
 20
596.418958534
 10
525.579662388
 20
582.510402164
 10
525.601503751
 20
582.408639425
 10
527.169617614
 20
574.281485243
 10
527.210709894
 20
573.952417509
 10
527.653506283
 20
566.307845396
 10
527.611501804
 20
565.684943916
 10
526.414823479
 20
559.546117286
 10
526.213790853
 20
558.940486764
 10
522.739905954
 20
551.720803928
 10
522.417942971
 20
551.216706793
 10
521.624741424
 20
550.252308184
 10
532.545586022
 20
551.540739038
 10
532.963008103
 20
551.554856036
 10
543.893714007
 20
551.009804409
 10
544.092904679
 20
550.991862203
 10
576.679128665
 20
546.736823632
 10
577.681432649
 20
554.708929383
 10
577.751531911
 20
555.060470277
 10
584.187572286
 20
578.444881801
 10
584.503699177
 20
579.146812693
 10
590.291290581
 20
588.024240174
 10
594.250358621
 20
594.099175908
 10
602.464734336
 20
606.683725626
 10
602.561002459
 20
606.820930704
 10
609.490729439
 20
616.025032108
 10
615.498350072
 20
626.919013536
 10
614.414198819
 20
633.433799012
 10
595.461295034
 20
630.730557289
 10
595.215924961
 20
630.707827825
 10
581.206338078
 20
630.104121829
 10
575.260356794
 20
629.5323237
 10
507.677007497
 20
616.302464545
  0
LWPOLYLINE
  5
6B0
330
1F
100
AcDbEntity
  8
outline
 67
0
100
AcDbPolyline
 90
32
 70
0
 10
619.284764324
 20
634.624779023
 10
620.573127096
 20
626.882863808
 10
620.296227872
 20
625.265218728
 10
613.783615451
 20
613.455505183
 10
613.591649592
 20
613.159060576
 10
606.605878917
 20
603.880521627
 10
598.438816467
 20
591.368457745
 10
595.849865079
 20
587.395878052
 10
610.124607601
 20
578.163552261
 10
621.714646003
 20
577.984551156
 10
630.104198707
 20
579.044590566
 10
638.628142307
 20
583.747392874
 10
639.343853951
 20
584.009557109
 10
649.362934374
 20
586.020510993
 10
653.205929992
 20
589.518581689
 10
662.712999782
 20
603.768716688
 10
663.174496421
 20
604.286926828
 10
673.922935475
 20
613.413753851
 10
675.008858233
 20
618.884696875
 10
675.318623019
 20
619.686432085
 10
678.093155813
 20
624.299798397
 10
678.863165618
 20
625.100965854
 10
683.894284274
 20
628.405207004
 10
684.209588174
 20
628.581095684
 10
693.597026024
 20
632.961241133
 10
697.39078478
 20
635.704224124
 10
705.772861403
 20
642.536262466
 10
711.458764218
 20
652.785515601
 10
671.484590847
 20
655.601990505
 10
665.139311309
 20
651.618300188
 10
664.676221007
 20
651.390464124
 10
619.284764324
 20
634.624779023
  0
LWPOLYLINE
  5
6B1
330
1F
100
AcDbEntity
  8
outline
 67
0
100
AcDbPolyline
 90
26
 70
0
 10
717.000221068
 20
652.467517669
 10
709.911601768
 20
639.689766107
 10
709.304960874
 20
638.96471005
 10
700.493688463
 20
631.782844068
 10
700.378995922
 20
631.694756956
 10
696.33414178
 20
628.770225685
 10
695.926429636
 20
628.530632602
 10
686.487773288
 20
624.126588782
 10
682.08425442
 20
621.234530525
 10
679.828249065
 20
617.483347937
 10
679.248380772
 20
614.561937211
 10
682.054928817
 20
614.552469648
 10
682.090452027
 20
614.550604362
 10
682.12601887
 20
614.551218756
 10
682.212891683
 20
614.544175186
 10
682.299929664
 20
614.539604914
 10
682.335098991
 20
614.534266726
 10
682.370554791
 20
614.531392002
 10
691.083757375
 20
613.392344111
 10
717.059944624
 20
611.677518005
 10
723.126980801
 20
614.344534343
 10
733.578000296
 20
622.836060736
 10
752.457933977
 20
651.663896775
 10
751.093098278
 20
651.6402684
 10
750.989021778
 20
651.640633336
 10
717.000221068
 20
652.467517669
  0
LWPOLYLINE
  5
6B2
330
1F
100
AcDbEntity
  8
outline
 67
0
100
AcDbPolyline
 90
31
 70
0
 10
759.201465553
 20
652.834510075
 10
737.547717255
 20
619.771326902
 10
737.032812449
 20
619.20074518
 10
726.018241025
 20
610.251328905
 10
725.447813959
 20
609.902974945
 10
718.512642574
 20
606.854334521
 10
707.659406801
 20
602.074946471
 10
705.327960082
 20
600.874710275
 10
696.36163981
 20
577.22186226
 10
693.661356051
 20
569.145471863
 10
690.279722455
 20
557.036471821
 10
687.960782472
 20
546.378627697
 10
687.125339532
 20
538.362184628
 10
686.302893207
 20
529.407069216
 10
685.802645123
 20
519.084998028
 10
685.796960479
 20
518.998644422
 10
685.373331514
 20
513.909115377
 10
707.959190919
 20
536.17127233
 10
725.851905528
 20
557.634487886
 10
725.870314007
 20
557.654486892
 10
725.887141387
 20
557.675833358
 10
766.497551194
 20
604.292192151
 10
787.759638663
 20
630.779316752
 10
790.775404189
 20
642.134136163
 10
790.353231636
 20
647.232502635
 10
787.906368117
 20
655.094865977
 10
771.66558655
 20
668.390397714
 10
769.313967427
 20
669.695585861
 10
767.226565178
 20
664.235273093
 10
766.927392325
 20
663.677233225
 10
759.201465553
 20
652.834510075
  0
LWPOLYLINE
  5
6B3
330
1F
100
AcDbEntity
  8
outline
 67
0
100
AcDbPolyline
 90
13
 70
0
 10
57.6144141341
 20
589.58693796
 10
57.0983163732
 20
584.329741472
 10
56.4867981438
 20
578.026617097
 10
48.6833151942
 20
497.801861996
 10
55.7840943442
 20
497.510874314
 10
60.8777316291
 20
585.635918964
 10
60.9504957554
 20
586.107070381
 10
63.1066277577
 20
594.596453848
 10
63.295268032
 20
595.102346954
 10
68.4301548483
 20
605.334669964
 10
67.2570050082
 20
607.344869073
 10
62.6432717511
 20
601.912327575
 10
57.6144141341
 20
589.58693796
  0
LWPOLYLINE
  5
6B4
330
1F
100
AcDbEntity
  8
outline
 67
0
100
AcDbPolyline
 90
12
 70
0
 10
70.9397936171
 20
610.954195566
 10
72.7539259686
 20
607.845669177
 10
81.5749556947
 20
607.353410778
 10
83.5159647355
 20
606.243775956
 10
86.8252215856
 20
601.278499606
 10
88.3516903007
 20
605.83890199
 10
88.437956936
 20
606.072253236
 10
94.7762161491
 20
621.704411388
 10
85.5420018323
 20
617.129498896
 10
84.8397072835
 20
616.860461554
 10
76.1972013272
 20
614.452830479
 10
70.9397936171
 20
610.954195566
  0
LWPOLYLINE
  5
6B5
330
1F
100
AcDbEntity
  8
outline
 67
0
100
AcDbPolyline
 90
13
 70
0
 10
72.7709857878
 20
602.836937683
 10
67.8859229116
 20
593.102440494
 10
65.8555826417
 20
585.108339437
 10
60.78497093
 20
497.381661539
 10
62.0916618369
 20
497.366447289
 10
65.6948492769
 20
525.431485465
 10
65.7561950371
 20
525.783780751
 10
73.8377288574
 20
562.41899698
 10
73.9508119606
 20
562.827413171
 10
84.5764170624
 20
594.560082512
 10
84.8163789859
 20
595.276980879
 10
80.0484918752
 20
602.430815767
 10
72.7709857878
 20
602.836937683
  0
LWPOLYLINE
  5
6B6
330
1F
100
AcDbEntity
  8
outline
 67
0
100
AcDbPolyline
 90
49
 70
0
 10
98.8235097076
 20
578.351564938
 10
92.6969750653
 20
557.972746243
 10
85.7209990606
 20
522.976118846
 10
81.7061145839
 20
485.199211678
 10
93.8472190964
 20
483.838083103
 10
100.388460951
 20
484.437284653
 10
103.127900642
 20
494.40531733
 10
105.723369283
 20
506.53117889
 10
107.107358812
 20
517.513994679
 10
107.136290077
 20
517.691717092
 10
109.8980764
 20
531.500783731
 10
110.071174812
 20
532.039624888
 10
111.878718603
 20
536.041293724
 10
114.195045564
 20
541.159842227
 10
114.960879594
 20
542.120222352
 10
126.390652229
 20
550.798654697
 10
127.798680951
 20
551.305406943
 10
140.481132416
 20
551.832306569
 10
156.206747938
 20
552.658411734
 10
152.311746821
 20
557.483138108
 10
129.795809891
 20
566.517898092
 10
129.735078232
 20
566.543200118
 10
122.119187512
 20
569.834397583
 10
115.682132024
 20
570.876259815
 10
115.374519375
 20
570.946210866
 10
102.510166505
 20
574.739365515
 10
102.424589216
 20
574.769235467
 10
102.338273927
 20
574.796900561
 10
102.30882617
 20
574.809641475
 10
102.278532629
 20
574.820215152
 10
102.196295184
 20
574.858329314
 10
102.113107181
 20
574.89432157
 10
102.085050051
 20
574.909887518
 10
102.055938783
 20
574.923379567
 10
101.977833176
 20
574.969370877
 10
101.898573603
 20
575.013343672
 10
101.872177305
 20
575.031584745
 10
101.844528668
 20
575.047865229
 10
101.771307098
 20
575.101290767
 10
101.696739269
 20
575.152820617
 10
101.672258015
 20
575.173561144
 10
101.64633828
 20
575.192473273
 10
101.578705909
 20
575.252818521
 10
101.509547954
 20
575.311409167
 10
101.487217511
 20
575.334449405
 10
101.463276299
 20
575.355811045
 10
101.401884466
 20
575.422494846
 10
101.338802412
 20
575.487582026
 10
98.8235097076
 20
578.351564938
  0
LWPOLYLINE
  5
6B7
330
1F
100
AcDbEntity
  8
outline
 67
0
100
AcDbPolyline
 90
21
 70
0
 10
331.756100808
 20
626.175623096
 10
333.070705622
 20
625.499233623
 10
333.427008414
 20
625.276162777
 10
335.75326056
 20
623.531322174
 10
336.072154832
 20
623.246412504
 10
350.864885244
 20
607.557077629
 10
350.936342869
 20
607.477976026
 10
361.574594871
 20
595.184679115
 10
361.699427584
 20
595.02817679
 10
369.377566439
 20
584.569032904
 10
372.220904064
 20
580.825315856
 10
385.872186164
 20
585.653395649
 10
376.518376748
 20
603.210408541
 10
376.513253448
 20
603.220075845
 10
370.425160803
 20
614.768880622
 10
365.18279565
 20
624.406744356
 10
357.094789424
 20
625.05526849
 10
357.020057366
 20
625.062391505
 10
345.568897973
 20
626.327607382
 10
332.729627644
 20
626.574486253
 10
331.756100808
 20
626.175623096
  0
LWPOLYLINE
  5
6B8
330
1F
100
AcDbEntity
  8
outline
 67
0
100
AcDbPolyline
 90
13
 70
0
 10
593.119535564
 20
583.207129061
 10
588.904944002
 20
576.742482781
 10
582.619961533
 20
553.906918064
 10
581.954820047
 20
548.616528774
 10
587.305863307
 20
551.70892556
 10
593.848848902
 20
559.177977928
 10
594.24234592
 20
559.540321874
 10
607.238628978
 20
569.15650074
 10
607.385535769
 20
569.257302265
 10
613.455451296
 20
573.111513115
 10
609.330420307
 20
573.175221714
 10
608.011341378
 20
573.575711704
 10
593.119535564
 20
583.207129061
  0
LWPOLYLINE
  5
6B9
330
1F
100
AcDbEntity
  8
outline
 67
0
100
AcDbPolyline
 90
48
 70
0
 10
622.720816608
 20
573.071928913
 10
610.140973724
 20
565.084113148
 10
597.432589672
 20
555.68095583
 10
590.794772571
 20
548.103649902
 10
590.165176107
 20
547.586446847
 10
581.191236558
 20
542.400358739
 10
579.702946615
 20
529.019624754
 10
602.380886104
 20
538.32933961
 10
635.749442431
 20
567.23637482
 10
636.513078078
 20
567.689317517
 10
643.418377604
 20
570.263618228
 10
643.818099004
 20
570.375842639
 10
655.35057676
 20
572.600693401
 10
661.888458364
 20
583.959651516
 10
661.921811039
 20
584.015884868
 10
667.580978555
 20
593.279121332
 10
671.798418186
 20
605.050374066
 10
666.6778733
 20
600.702363419
 10
657.195121128
 20
586.488678068
 10
657.159659609
 20
586.440793026
 10
657.126661291
 20
586.391178436
 10
657.086699296
 20
586.342271931
 10
657.049112587
 20
586.291517163
 10
657.00912827
 20
586.247338537
 10
656.971425767
 20
586.201197255
 10
656.926862525
 20
586.156443209
 10
656.884481969
 20
586.109616981
 10
656.840359925
 20
586.069570235
 10
656.798316333
 20
586.027346628
 10
652.216604093
 20
581.856862215
 10
651.025722692
 20
581.254533966
 10
640.705867235
 20
579.183210796
 10
632.100313541
 20
574.435382834
 10
632.006081278
 20
574.389272433
 10
631.91251445
 20
574.341826281
 10
631.895929174
 20
574.335372023
 10
631.879943504
 20
574.327549801
 10
631.781645384
 20
574.290897811
 10
631.68387857
 20
574.252851278
 10
631.666740529
 20
574.24805374
 10
631.650065122
 20
574.241836054
 10
631.548647812
 20
574.214995454
 10
631.44762256
 20
574.186714949
 10
631.430096802
 20
574.183620334
 10
631.412892252
 20
574.179067064
 10
631.309332455
 20
574.162296343
 10
631.206021692
 20
574.144054223
 10
622.720816608
 20
573.071928913
  0
LWPOLYLINE
  5
6BA
330
1F
100
AcDbEntity
  8
outline
 67
0
100
AcDbPolyline
 90
19
 70
0
 10
579.077661444
 20
523.39788782
 10
578.613028642
 20
519.220524428
 10
578.508954536
 20
518.73352139
 10
572.371725257
 20
499.594160653
 10
572.362412272
 20
499.565704671
 10
568.869923503
 20
489.106635726
 10
583.939182385
 20
495.789511205
 10
613.86983355
 20
511.147446186
 10
634.144393779
 20
525.117182647
 10
646.905681338
 20
557.913785664
 10
647.070507811
 20
558.257317243
 10
652.043798853
 20
566.870552588
 10
644.969772964
 20
565.505828352
 10
638.682340947
 20
563.161869101
 10
605.34559388
 20
534.282390114
 10
604.658077705
 20
533.859251151
 10
579.47330898
 20
523.52043639
 10
579.242052229
 20
523.438514282
 10
579.077661444
 20
523.39788782
  0
LWPOLYLINE
  5
6BB
330
1F
100
AcDbEntity
  8
outline
 67
0
100
AcDbPolyline
 90
21
 70
0
 10
678.148361329
 20
609.565619549
 10
676.769674329
 20
604.135183639
 10
676.700050898
 20
603.907150354
 10
672.201515515
 20
591.351334135
 10
671.981390544
 20
590.891214382
 10
666.205612441
 20
581.437103299
 10
662.10359325
 20
574.310228419
 10
667.536424835
 20
575.745105241
 10
672.707580012
 20
578.820444906
 10
680.489517265
 20
587.19775941
 10
691.06828942
 20
598.978701449
 10
691.785008853
 20
599.531592451
 10
702.186609814
 20
604.881193701
 10
705.438225515
 20
606.555135821
 10
705.574958418
 20
606.620363707
 10
707.163597621
 20
607.319945231
 10
690.674456983
 20
608.408480995
 10
690.594900757
 20
608.417671075
 10
690.515077428
 20
608.42414308
 10
681.879580922
 20
609.553032714
 10
678.148361329
 20
609.565619549
  0
LWPOLYLINE
  5
6BC
330
1F
100
AcDbEntity
  8
outline
 67
0
100
AcDbPolyline
 90
25
 70
0
 10
658.591518675
 20
568.211198252
 10
651.496080532
 20
555.922619504
 10
641.107301518
 20
529.223380922
 10
656.869198774
 20
538.339703315
 10
657.127528488
 20
538.469787202
 10
665.180488614
 20
541.956560598
 10
665.246082928
 20
541.983861484
 10
677.625185662
 20
546.930961014
 10
677.807774195
 20
546.995842342
 10
683.354971183
 20
548.727979975
 10
685.409474002
 20
558.170471351
 10
685.444450591
 20
558.311391791
 10
688.862545161
 20
570.55095179
 10
688.899424291
 20
570.671239111
 10
691.635392723
 20
578.854360272
 10
691.66870952
 20
578.947801594
 10
698.685582444
 20
597.458073786
 10
694.481066642
 20
595.295667823
 10
684.195663579
 20
583.84143329
 10
684.167195584
 20
583.810263623
 10
676.126165189
 20
575.154033385
 10
675.572381106
 20
574.706783186
 10
669.791223192
 20
571.268668562
 10
669.151741057
 20
571.000281274
 10
658.591518675
 20
568.211198252
  0
LWPOLYLINE
  5
6BD
330
1F
100
AcDbEntity
  8
outline
 67
0
100
AcDbPolyline
 90
45
 70
0
 10
525.867585149
 20
455.785717793
 10
525.866512627
 20
455.810494035
 10
525.87188691
 20
455.908263839
 10
525.875322012
 20
456.006120967
 10
526.12911994
 20
459.014075558
 10
509.119570619
 20
471.203676452
 10
478.197769784
 20
490.475866428
 10
478.58840848
 20
488.496682316
 10
474.472615644
 20
472.674495177
 10
474.238798376
 20
472.090249271
 10
465.50272079
 20
456.357054785
 10
493.221546124
 20
450.755797751
 10
525.713595925
 20
445.175883183
 10
529.665887521
 20
444.746980734
 10
532.901412019
 20
449.619995079
 10
530.794030544
 20
449.908066584
 10
529.190889415
 20
450.810334243
 10
526.424736827
 20
454.221231604
 10
526.366866697
 20
454.300218093
 10
526.307442162
 20
454.378041882
 10
526.294396192
 20
454.399132523
 10
526.27973948
 20
454.419137354
 10
526.229890041
 20
454.503415767
 10
526.178379715
 20
454.586689435
 10
526.167463809
 20
454.608957247
 10
526.15483849
 20
454.630302359
 10
526.113489819
 20
454.719061048
 10
526.070389776
 20
454.806982625
 10
526.061709061
 20
454.830213158
 10
526.051236723
 20
454.852692985
 10
526.018787029
 20
454.945077155
 10
525.984512347
 20
455.036799909
 10
525.978150422
 20
455.060769439
 10
525.96993192
 20
455.084167488
 10
525.946693712
 20
455.179287429
 10
525.921574474
 20
455.273928019
 10
525.917592609
 20
455.298405707
 10
525.91170709
 20
455.322496642
 10
525.897904166
 20
455.419436297
 10
525.882182284
 20
455.516083283
 10
525.880618825
 20
455.540833396
 10
525.877122971
 20
455.565385208
 10
525.87288826
 20
455.663210995
 10
525.866715144
 20
455.760933613
 10
525.867585149
 20
455.785717793
  0
LWPOLYLINE
  5
6BE
330
1F
100
AcDbEntity
  8
outline
 67
0
100
AcDbPolyline
 90
22
 70
0
 10
528.582277565
 20
463.407408878
 10
530.429145728
 20
465.028691935
 10
532.191492696
 20
465.647353847
 10
536.647223264
 20
465.445660685
 10
538.390648582
 20
464.622584195
 10
541.491504352
 20
461.18447129
 10
562.486909764
 20
485.777621901
 10
567.615088961
 20
501.135145817
 10
573.671335978
 20
520.021957943
 10
576.090429751
 20
541.771248403
 10
543.544747599
 20
546.020993109
 10
532.923298878
 20
546.550623854
 10
516.142727285
 20
544.570867984
 10
492.283575397
 20
539.72808434
 10
488.017534615
 20
538.74807596
 10
485.575864913
 20
533.238890324
 10
485.457795765
 20
533.006114896
 10
477.272385002
 20
518.764044017
 10
471.30564588
 20
500.663042817
 10
511.832643303
 20
475.404358898
 10
511.966560065
 20
475.314776973
 10
528.582277565
 20
463.407408878
  0
LWPOLYLINE
  5
6BF
330
1F
100
AcDbEntity
  8
outline
 67
0
100
AcDbPolyline
 90
9
 70
0
 10
530.942251735
 20
456.588791771
 10
532.451287935
 20
454.728023997
 10
534.765627731
 20
454.41166203
 10
536.976050639
 20
456.152980605
 10
537.150114813
 20
458.532530101
 10
535.377427618
 20
460.498019364
 10
532.971138162
 20
460.606942496
 10
531.146106248
 20
459.004828506
 10
530.942251735
 20
456.588791771
  0
LWPOLYLINE
  5
6C0
330
1F
100
AcDbEntity
  8
outline
 67
0
100
AcDbPolyline
 90
5
 70
0
 10
39.4615074418
 20
493.56094677
 10
38.8553276336
 20
489.493232895
 10
39.8295906463
 20
489.381997965
 10
40.2251240928
 20
493.468011441
 10
39.4615074418
 20
493.56094677
  0
LWPOLYLINE
  5
6C1
330
1F
100
AcDbEntity
  8
outline
 67
0
100
AcDbPolyline
 90
5
 70
0
 10
47.7942061844
 20
488.630158465
 10
55.2402856306
 20
488.073534056
 10
55.4961403995
 20
492.518478001
 10
48.1995474079
 20
492.817490072
 10
47.7942061844
 20
488.630158465
  0
LWPOLYLINE
  5
6C2
330
1F
100
AcDbEntity
  8
outline
 67
0
100
AcDbPolyline
 90
5
 70
0
 10
60.2217445712
 20
487.607638615
 10
60.8299769215
 20
487.53924959
 10
61.4506413115
 20
492.373572003
 10
60.4967150887
 20
492.384678894
 10
60.2217445712
 20
487.607638615
  0
LWPOLYLINE
  5
6C3
330
1F
100
AcDbEntity
  8
outline
 67
0
100
AcDbPolyline
 90
51
 70
0
 10
68.7812208705
 20
486.648042037
 10
69.4711506884
 20
486.570862747
 10
73.7557874572
 20
486.090515878
 10
75.5095754539
 20
502.592282424
 10
71.6375154194
 20
493.77644012
 10
71.5880352919
 20
493.677303892
 10
71.5394999787
 20
493.577701693
 10
71.5332654621
 20
493.567569447
 10
71.5279526529
 20
493.556924934
 10
71.4689937362
 20
493.463115975
 10
71.4109294111
 20
493.36875068
 10
71.4037317816
 20
493.359278313
 10
71.3974012104
 20
493.349205803
 10
71.329531311
 20
493.261627544
 10
71.2624971651
 20
493.173407943
 10
71.2544057399
 20
493.164686679
 10
71.2471183735
 20
493.155283175
 10
71.1709911156
 20
493.074779043
 10
71.0956327245
 20
492.993554739
 10
71.0867254285
 20
492.985668569
 10
71.0785514481
 20
492.977024632
 10
70.9948999789
 20
492.904369925
 10
70.9119430851
 20
492.830923152
 10
70.9023057002
 20
492.823948024
 10
70.8933238258
 20
492.8161469
 10
70.8029537548
 20
492.752041323
 10
70.7131972784
 20
492.687079414
 10
70.7029226181
 20
492.681082502
 10
70.69321935
 20
492.674199321
 10
70.5970009903
 20
492.619260246
 10
70.5013093352
 20
492.563408819
 10
70.4904963501
 20
492.558447876
 10
70.4801651361
 20
492.552548926
 10
70.379025123
 20
492.507305446
 10
70.2783198523
 20
492.461102381
 10
70.2670726773
 20
492.457225185
 10
70.2562130127
 20
492.452367276
 10
70.1511253799
 20
492.41725511
 10
70.0463763403
 20
492.381145369
 10
70.0348032918
 20
492.378389258
 10
70.0235197611
 20
492.374619174
 10
69.9154965599
 20
492.349976473
 10
69.807712542
 20
492.324307811
 10
69.7959250748
 20
492.322699329
 10
69.7843263446
 20
492.320053379
 10
69.6744078975
 20
492.306117464
 10
69.5646269203
 20
492.291137085
 10
69.5527385541
 20
492.290691722
 10
69.5409363264
 20
492.289195387
 10
69.5053442128
 20
492.288200808
 10
68.7812208705
 20
486.648042037
  0
LWPOLYLINE
  5
6C4
330
1F
100
AcDbEntity
  8
outline
 67
0
100
AcDbPolyline
 90
19
 70
0
 10
94.0414708465
 20
478.835352553
 10
94.033233796
 20
478.834243862
 10
93.9189298304
 20
478.830170723
 10
93.8046554402
 20
478.82533846
 10
93.7963570993
 20
478.825802933
 10
93.7880510417
 20
478.825506953
 10
93.6738982435
 20
478.832657176
 10
93.5597004711
 20
478.839049031
 10
93.5514876153
 20
478.840324647
 10
93.5431925425
 20
478.840844228
 10
81.4158118092
 20
480.200434278
 10
82.1569696028
 20
463.255626903
 10
83.8791855406
 20
453.971500037
 10
87.9132847606
 20
464.414088033
 10
88.2130279289
 20
464.969143111
 10
96.7550453178
 20
476.892554374
 10
97.9728420338
 20
479.19507093
 10
94.049774755
 20
478.835703696
 10
94.0414708465
 20
478.835352553
  0
LWPOLYLINE
  5
6C5
330
1F
100
AcDbEntity
  8
outline
 67
0
100
AcDbPolyline
 90
13
 70
0
 10
332.695507659
 20
554.940384338
 10
344.19096039
 20
542.514286355
 10
344.429208649
 20
542.213363059
 10
354.888431267
 20
526.687610633
 10
369.356683573
 20
511.673470647
 10
390.535255672
 20
496.521181357
 10
389.376498613
 20
523.051758229
 10
388.094066248
 20
530.428189847
 10
386.579373736
 20
537.496128335
 10
384.010417521
 20
546.23521165
 10
375.152391739
 20
566.828018556
 10
370.456696835
 20
574.513620694
 10
332.695507659
 20
554.940384338
  0
LWPOLYLINE
  5
6C6
330
1F
100
AcDbEntity
  8
outline
 67
0
100
AcDbPolyline
 90
29
 70
0
 10
395.701460255
 20
492.824946501
 10
402.105904638
 20
488.242511274
 10
424.513919418
 20
488.941147346
 10
427.499723843
 20
496.269503875
 10
425.360104232
 20
497.92658609
 10
425.078199528
 20
498.181449202
 10
415.660379958
 20
508.097100924
 10
415.309989553
 20
508.565341588
 10
411.415965442
 20
515.285325792
 10
411.213119089
 20
515.731042154
 10
408.066963529
 20
524.946566068
 10
407.94797506
 20
525.480027024
 10
406.704770948
 20
536.744031417
 10
404.403491165
 20
550.036565924
 10
400.725598548
 20
561.378082971
 10
395.499258708
 20
572.760706682
 10
388.608288231
 20
581.317580047
 10
375.081874282
 20
576.533662655
 10
379.511907171
 20
569.282878491
 10
379.675118168
 20
568.967331004
 10
388.663011579
 20
548.072612694
 10
388.764979802
 20
547.789821435
 10
391.402784367
 20
538.816529585
 10
391.448765937
 20
538.635325054
 10
392.993269874
 20
531.428278915
 10
393.011826709
 20
531.332626888
 10
394.330153121
 20
523.749736054
 10
394.364718649
 20
523.430607679
 10
395.701460255
 20
492.824946501
  0
LWPOLYLINE
  5
6C7
330
1F
100
AcDbEntity
  8
outline
 67
0
100
AcDbPolyline
 90
21
 70
0
 10
428.663463214
 20
485.874298065
 10
427.001268644
 20
470.588564545
 10
443.714229687
 20
460.555353314
 10
445.694939402
 20
460.349795323
 10
445.931805739
 20
460.313669528
 10
452.29114918
 20
459.029275736
 10
452.292559913
 20
459.028917956
 10
452.293998667
 20
459.028698502
 10
457.351497525
 20
458.001114724
 10
460.360026585
 20
457.395106226
 10
469.71350146
 20
474.24019922
 10
473.445923302
 20
488.588607706
 10
467.450783231
 20
496.570072735
 10
462.266428662
 20
494.579769277
 10
457.077597719
 20
492.566618154
 10
457.074748175
 20
492.565670643
 10
457.072002299
 20
492.564454976
 10
450.399426468
 20
489.994048395
 10
448.892663662
 20
489.902021369
 10
432.027590632
 20
494.131210529
 10
428.663463214
 20
485.874298065
  0
LWPOLYLINE
  5
6C8
330
1F
100
AcDbEntity
  8
outline
 67
0
100
AcDbPolyline
 90
44
 70
0
 10
460.466225872
 20
499.244227686
 10
460.470283388
 20
499.246018497
 10
466.313330414
 20
501.489197768
 10
472.603527012
 20
520.571455907
 10
472.810341492
 20
521.034537439
 10
481.057648673
 20
535.384303972
 10
482.081148227
 20
537.69364542
 10
480.004704331
 20
537.355076506
 10
478.578992836
 20
537.541557068
 10
469.80005282
 20
541.480429284
 10
469.756887602
 20
541.50240122
 10
469.712493351
 20
541.521770078
 10
465.837971888
 20
543.443730618
 10
460.778470527
 20
545.74620189
 10
459.932528771
 20
546.375413967
 10
447.318493565
 20
560.791681712
 10
447.289545978
 20
560.825364274
 10
442.70923679
 20
566.251649014
 10
441.999273455
 20
553.071174534
 10
441.239504413
 20
532.943569586
 10
442.087475659
 20
519.499798343
 10
442.088464697
 20
519.428672517
 10
442.092387638
 20
519.357648073
 10
442.090169301
 20
519.306087235
 10
442.090886873
 20
519.254483687
 10
442.084899598
 20
519.18360341
 10
442.081842036
 20
519.112536452
 10
442.074580535
 20
519.061441328
 10
442.070236619
 20
519.010015931
 10
442.057330692
 20
518.940063817
 10
442.047322074
 20
518.86963876
 10
442.035087341
 20
518.819501425
 10
442.025723772
 20
518.768749433
 10
442.006023484
 20
518.70039916
 10
441.989160197
 20
518.631294234
 10
441.97207006
 20
518.582597538
 10
441.957777014
 20
518.533007722
 10
441.931472091
 20
518.466917539
 10
441.907916538
 20
518.399798264
 10
433.932323248
 20
498.808380541
 10
449.340884991
 20
494.944435085
 10
455.271852548
 20
497.229159669
 10
460.462017297
 20
499.242828279
 10
460.466225872
 20
499.244227686
  0
LWPOLYLINE
  5
6C9
330
1F
100
AcDbEntity
  8
outline
 67
0
100
AcDbPolyline
 90
25
 70
0
 10
314.415396945
 20
448.379923133
 10
314.598993041
 20
448.315639605
 10
314.821486123
 20
448.212258052
 10
315.032774675
 20
448.087566175
 10
322.50565957
 20
443.167687966
 10
347.029508136
 20
468.969949663
 10
364.752098987
 20
509.246087889
 10
351.136703982
 20
523.375192236
 10
350.863493595
 20
523.713144295
 10
340.389948067
 20
539.260157762
 10
328.473508299
 20
552.14132492
 10
321.356266216
 20
545.726999793
 10
320.152910051
 20
543.732808867
 10
320.029463419
 20
543.547435597
 10
306.595944889
 20
525.202289172
 10
295.307057238
 20
509.7674392
 10
295.149943043
 20
509.573702084
 10
285.584542976
 20
498.913039688
 10
279.198559484
 20
489.298677645
 10
279.473654959
 20
472.623572569
 10
282.852107483
 20
464.175842266
 10
290.149147864
 20
458.734995219
 10
297.951016074
 20
453.602528563
 10
314.413674572
 20
448.382545228
 10
314.415396945
 20
448.379923133
  0
LWPOLYLINE
  5
6CA
330
1F
100
AcDbEntity
  8
outline
 67
0
100
AcDbPolyline
 90
17
 70
0
 10
325.146406325
 20
555.873768668
 10
301.663810749
 20
583.22888167
 10
301.590033264
 20
583.318990247
 10
288.128655396
 20
600.564474957
 10
281.281282777
 20
607.813930216
 10
281.333812774
 20
596.862109512
 10
281.333332058
 20
596.79964966
 10
280.057182347
 20
533.59779148
 10
279.357249916
 20
498.574537207
 10
281.520038199
 20
501.830704344
 10
281.74175216
 20
502.117087888
 10
291.345013048
 20
512.819946264
 10
302.560603123
 20
528.154579359
 10
315.929529253
 20
546.411517486
 10
317.266782033
 20
548.627600669
 10
317.733586675
 20
549.193057967
 10
325.146406325
 20
555.873768668
  0
LWPOLYLINE
  5
6CB
330
1F
100
AcDbEntity
  8
outline
 67
0
100
AcDbPolyline
 90
4
 70
0
 10
408.80920974
 20
483.449077046
 10
422.319763357
 20
473.788533744
 10
423.41980081
 20
483.904605393
 10
408.80920974
 20
483.449077046
  0
LWPOLYLINE
  5
6CC
330
1F
100
AcDbEntity
  8
outline
 67
0
100
AcDbPolyline
 90
16
 70
0
 10
148.077833195
 20
441.510842476
 10
150.347072395
 20
442.189566495
 10
151.00204635
 20
444.29366225
 10
151.743801053
 20
445.432926367
 10
153.860210431
 20
447.282815271
 10
155.89900001
 20
447.869339904
 10
160.106928155
 20
447.198616407
 10
161.811002116
 20
446.089965544
 10
162.397978618
 20
445.184765055
 10
164.515597919
 20
445.669595332
 10
163.359089472
 20
448.304465426
 10
159.924375975
 20
450.312939215
 10
154.876002466
 20
450.291562548
 10
150.350576152
 20
447.803519785
 10
149.809437057
 20
447.149117204
 10
148.077833195
 20
441.510842476
  0
LWPOLYLINE
  5
6CD
330
1F
100
AcDbEntity
  8
outline
 67
0
100
AcDbPolyline
 90
48
 70
0
 10
163.560577256
 20
440.321570486
 10
163.4683162
 20
439.398544076
 10
162.715624808
 20
437.847170742
 10
159.984534118
 20
435.214866949
 10
159.947811519
 20
435.182795305
 10
159.913050259
 20
435.148607671
 10
159.855471316
 20
435.102150085
 10
159.799747063
 20
435.053483366
 10
159.760057723
 20
435.0251656
 10
159.722112873
 20
434.994549788
 10
159.660257549
 20
434.953959631
 10
159.600031451
 20
434.910989188
 10
159.557757599
 20
434.886698015
 10
159.51699459
 20
434.859948872
 10
159.451458585
 20
434.82561705
 10
159.387310652
 20
434.788756711
 10
159.342859409
 20
434.768726069
 10
159.299670811
 20
434.746101204
 10
159.231085273
 20
434.718358351
 10
159.163633284
 20
434.687963101
 10
159.11743274
 20
434.672385897
 10
159.072234482
 20
434.654103199
 10
159.001259927
 20
434.633216494
 10
158.931153483
 20
434.609579057
 10
158.883648574
 20
434.598605305
 10
158.83687594
 20
434.584840848
 10
158.764195891
 20
434.571011441
 10
158.692110155
 20
434.554359458
 10
158.64375838
 20
434.548094843
 10
158.595861816
 20
434.538981186
 10
158.522176223
 20
434.532342261
 10
158.448805419
 20
434.5228361
 10
158.400072431
 20
434.521340954
 10
158.351513208
 20
434.516965865
 10
158.277531703
 20
434.51758136
 10
158.203582432
 20
434.51531257
 10
158.154937557
 20
434.518601292
 10
158.106183326
 20
434.519006906
 10
154.379338468
 20
434.73318837
 10
152.514371673
 20
435.740342528
 10
151.374564102
 20
437.278028265
 10
149.921984398
 20
436.843565149
 10
150.780808943
 20
435.249311773
 10
157.701582869
 20
432.538368132
 10
159.042029712
 20
432.703445946
 10
163.608509888
 20
435.285388123
 10
165.800367493
 20
440.834371876
 10
163.560577256
 20
440.321570486
  0
LWPOLYLINE
  5
6CE
330
1F
100
AcDbEntity
  8
outline
 67
0
100
AcDbPolyline
 90
9
 70
0
 10
157.301754426
 20
439.57348754
 10
158.584462677
 20
440.809798661
 10
158.676784455
 20
441.733432569
 10
158.221152465
 20
442.436081309
 10
156.268766439
 20
442.747282246
 10
155.566158026
 20
442.133153657
 10
155.102837153
 20
440.644741065
 10
155.834393608
 20
439.657816644
 10
157.301754426
 20
439.57348754
  0
LWPOLYLINE
  5
6CF
330
1F
100
AcDbEntity
  8
outline
 67
0
100
AcDbPolyline
 90
20
 70
0
 10
616.540502043
 20
506.917942513
 10
616.508914087
 20
506.895327221
 10
616.436250525
 20
506.853416068
 10
616.364923693
 20
506.809268348
 10
616.330045236
 20
506.792158597
 10
616.296392699
 20
506.772748365
 10
586.158769424
 20
491.308612413
 10
586.094228645
 20
491.279402428
 10
586.03095546
 20
491.247539605
 10
566.236761594
 20
482.46926233
 10
541.388262706
 20
453.362757186
 10
535.15625711
 20
443.976751088
 10
544.572507532
 20
442.536428235
 10
572.348968379
 20
440.33282302
 10
611.590210405
 20
444.119418725
 10
615.113317497
 20
449.377975824
 10
622.044705164
 20
468.812947439
 10
632.207691411
 20
517.710757253
 10
616.573535502
 20
506.938388562
 10
616.540502043
 20
506.917942513
  0
LWPOLYLINE
  5
6D0
330
1F
100
AcDbEntity
  8
outline
 67
0
100
AcDbPolyline
 90
25
 70
0
 10
429.457580115
 20
501.077376107
 10
437.061405967
 20
519.755576354
 10
436.30166458
 20
531.800547748
 10
432.461308902
 20
535.579744405
 10
431.968812866
 20
536.263733262
 10
424.44379846
 20
551.657814316
 10
415.977919341
 20
559.770496498
 10
415.897928626
 20
559.850704485
 10
407.555103298
 20
568.604154223
 10
407.501946804
 20
568.661706303
 10
403.141705478
 20
573.533488588
 10
398.95720041
 20
576.438544362
 10
399.588557157
 20
575.654556135
 10
399.913400838
 20
575.129688681
 10
405.330532497
 20
563.331532965
 10
405.4366583
 20
563.059540543
 10
409.214566667
 20
551.409604941
 10
409.299838774
 20
551.064896474
 10
411.64460154
 20
537.521197782
 10
411.666156377
 20
537.36898618
 10
412.88763578
 20
526.301817706
 10
415.865473105
 20
517.579321138
 10
419.488519743
 20
511.326967406
 10
428.572332264
 20
501.762978567
 10
429.457580115
 20
501.077376107
  0
LWPOLYLINE
  5
6D1
330
1F
100
AcDbEntity
  8
outline
 67
0
100
AcDbPolyline
 90
25
 70
0
 10
624.294338329
 20
449.370303907
 10
635.066058398
 20
455.182061224
 10
641.450918369
 20
462.12932557
 10
641.602947823
 20
462.28110611
 10
654.611099456
 20
474.196943953
 10
666.696420579
 20
491.117913353
 10
666.717277071
 20
491.146680605
 10
678.093515646
 20
506.60549104
 10
680.275117214
 20
512.936886339
 10
680.810601582
 20
519.370259584
 10
681.311366611
 20
529.702997385
 10
681.31891305
 20
529.810619753
 10
682.147695237
 20
538.834722485
 10
682.150684683
 20
538.865219307
 10
682.608353853
 20
543.256756623
 10
679.390634424
 20
542.252009013
 10
667.13455893
 20
537.354075244
 10
659.247135602
 20
533.938976026
 10
638.211297674
 20
521.772326463
 10
638.097063729
 20
521.475739863
 10
626.905016584
 20
467.626745149
 10
626.812051144
 20
467.295675124
 10
619.718221277
 20
447.405230564
 10
619.704172731
 20
447.37732827
 10
624.294338329
 20
449.370303907
  0
LWPOLYLINE
  5
6D2
330
1F
100
AcDbEntity
  8
outline
 67
0
100
AcDbPolyline
 90
19
 70
0
 10
396.135328782
 20
583.888129973
 10
398.592277763
 20
582.7357132
 10
398.956355752
 20
582.525941969
 10
406.234393651
 20
577.473228284
 10
406.67154613
 20
577.086866415
 10
411.201540271
 20
572.025416015
 10
419.478249861
 20
563.341336156
 10
428.224258791
 20
554.960211193
 10
428.740562978
 20
554.253102378
 10
436.273086413
 20
538.843659946
 10
436.452011372
 20
538.66758443
 10
437.003590207
 20
553.279868247
 10
437.0054299
 20
553.320033389
 10
437.999948256
 20
571.783273921
 10
432.726010218
 20
577.655710901
 10
426.488974154
 20
583.657040473
 10
426.295730295
 20
583.865394816
 10
419.691562001
 20
591.852133265
 10
396.135328782
 20
583.888129973
  0
LWPOLYLINE
  5
6D3
330
1F
100
AcDbEntity
  8
outline
 67
0
100
AcDbPolyline
 90
9
 70
0
 10
438.000511778
 20
579.265698917
 10
437.994855167
 20
579.989378917
 10
437.995077441
 20
580.047560364
 10
438.276290616
 20
598.239391462
 10
424.748465464
 20
593.582790437
 10
430.05832444
 20
587.161322517
 10
436.258501338
 20
581.195459151
 10
436.385109335
 20
581.064421044
 10
438.000511778
 20
579.265698917
  0
LWPOLYLINE
  5
6D4
330
1F
100
AcDbEntity
  8
outline
 67
0
100
AcDbPolyline
 90
7
 70
0
 10
85.2205491415
 20
560.890842878
 10
92.600126589
 20
585.437683732
 10
90.6875755696
 20
587.615368034
 10
85.2951682904
 20
571.511299048
 10
85.4249952248
 20
562.931164783
 10
85.4103644866
 20
562.62064761
 10
85.2205491415
 20
560.890842878
  0
LWPOLYLINE
  5
6D5
330
1F
100
AcDbEntity
  8
outline
 67
0
100
AcDbPolyline
 90
8
 70
0
 10
94.2971361368
 20
591.082481634
 10
97.7689649529
 20
602.630897519
 10
97.8360834925
 20
602.834246061
 10
105.49235924
 20
624.100176168
 10
104.538629779
 20
624.490915327
 10
95.8984863083
 20
603.181580278
 10
92.5243131807
 20
593.101067639
 10
94.2971361368
 20
591.082481634
  0
LWPOLYLINE
  5
6D6
330
1F
100
AcDbEntity
  8
outline
 67
0
100
AcDbPolyline
 90
5
 70
0
 10
110.064048978
 20
636.798417146
 10
113.405004044
 20
646.07819223
 10
113.276133467
 20
646.040371558
 10
109.419872285
 20
636.529608012
 10
110.064048978
 20
636.798417146
  0
LWPOLYLINE
  5
6D7
330
1F
100
AcDbEntity
  8
outline
 67
0
100
AcDbPolyline
 90
6
 70
0
 10
78.7034271511
 20
547.338680084
 10
73.606929114
 20
524.235230696
 10
71.1503085843
 20
505.100742108
 10
74.3511720375
 20
512.388415127
 10
76.1740715057
 20
524.288428995
 10
78.7034271511
 20
547.338680084
  0
LWPOLYLINE
  5
6D8
330
1F
100
AcDbEntity
  8
outline
 67
0
100
AcDbPolyline
 90
7
 70
0
 10
809.470591665
 20
645.655083862
 10
812.904939798
 20
650.113615645
 10
822.55755502
 20
692.208665618
 10
815.408525031
 20
683.159096981
 10
807.279786826
 20
672.759279539
 10
805.090865189
 20
649.703399339
 10
809.470591665
 20
645.655083862
  0
LWPOLYLINE
  5
6D9
330
1F
100
AcDbEntity
  8
outline
 67
0
100
AcDbPolyline
 90
23
 70
0
 10
824.58449477
 20
701.048148817
 10
824.717829793
 20
701.629622783
 10
833.243235678
 20
738.817739895
 10
844.921500092
 20
810.33113348
 10
845.018402961
 20
810.768729488
 10
858.576865009
 20
859.011127764
 10
839.982258333
 20
863.329571765
 10
838.145262927
 20
855.463786907
 10
838.025316715
 20
855.087417611
 10
833.017241981
 20
842.820419593
 10
832.838554324
 20
842.466070206
 10
822.759047498
 20
825.896547184
 10
816.441341429
 20
813.458998046
 10
816.421709009
 20
813.421150864
 10
809.318010793
 20
800.00779643
 10
806.010495854
 20
787.244055478
 10
803.345383669
 20
772.918098522
 10
800.211797731
 20
745.900534922
 10
798.777103837
 20
720.204057681
 10
798.757569111
 20
720.00200907
 10
796.586894977
 20
704.256113439
 10
822.740667661
 20
699.816092982
 10
824.58449477
 20
701.048148817
  0
LWPOLYLINE
  5
6DA
330
1F
100
AcDbEntity
  8
outline
 67
0
100
AcDbPolyline
 90
34
 70
0
 10
192.740755866
 20
701.428779007
 10
199.017784576
 20
707.109711595
 10
199.417220909
 20
707.40470403
 10
208.369064832
 20
712.729887373
 10
208.7802297
 20
712.9261699
 10
217.435453157
 20
716.126246565
 10
218.102016112
 20
716.273339498
 10
225.770466639
 20
716.89002016
 10
226.171880534
 20
716.88997036
 10
246.182727689
 20
715.275742778
 10
225.442435731
 20
735.103706603
 10
225.317725986
 20
735.231771781
 10
208.291196418
 20
754.015567194
 10
208.271435936
 20
754.037628324
 10
191.988454778
 20
772.434497904
 10
191.829011248
 20
772.634366787
 10
186.717608956
 20
779.760833115
 10
186.710708444
 20
779.771525366
 10
186.702894889
 20
779.781569751
 10
186.644205524
 20
779.874570758
 10
186.584573328
 20
779.966970056
 10
186.578754068
 20
779.978287189
 10
186.571962659
 20
779.989049069
 10
184.008252261
 20
784.531123135
 10
179.837069189
 20
774.493892088
 10
182.308732959
 20
764.983016079
 10
182.340983046
 20
764.84954921
 10
185.046749534
 20
752.745399722
 10
188.795869988
 20
736.391575862
 10
188.860495949
 20
736.037013724
 10
192.363973682
 20
710.286598858
 10
192.395623732
 20
709.944583963
 10
192.778591991
 20
702.18739826
 10
192.740755866
 20
701.428779007
  0
LWPOLYLINE
  5
6DB
330
1F
100
AcDbEntity
  8
outline
 67
0
100
AcDbPolyline
 90
55
 70
0
 10
171.7247725
 20
773.92774876
 10
171.703679201
 20
774.012373638
 10
171.697816048
 20
774.052217683
 10
171.68695105
 20
774.10238581
 10
163.922392395
 20
818.719071263
 10
161.597557708
 20
832.037641379
 10
161.550651595
 20
832.407280425
 10
158.875969458
 20
865.925056355
 10
157.509212593
 20
866.713785279
 10
147.264212861
 20
871.859224406
 10
146.830671075
 20
871.107504364
 10
143.198221277
 20
862.894263851
 10
143.218378517
 20
857.665643556
 10
144.939731088
 20
835.952826555
 10
144.783384011
 20
834.864250476
 10
143.32106106
 20
831.030646875
 10
143.470220257
 20
792.339993438
 10
148.026447937
 20
786.50699086
 10
148.381611083
 20
785.967610244
 10
153.941014329
 20
775.827095984
 10
154.236802084
 20
775.143209315
 10
157.547085877
 20
764.982210795
 10
157.708747664
 20
764.271753813
 10
158.591748052
 20
757.648315717
 10
158.615892002
 20
757.415297692
 10
159.396124557
 20
746.884909241
 10
159.403608995
 20
746.423243489
 10
158.987887468
 20
736.420658255
 10
158.953019842
 20
736.034424897
 10
157.070085479
 20
722.528890347
 10
157.019562402
 20
722.242873525
 10
153.130651477
 20
704.099967335
 10
153.052766877
 20
703.795513173
 10
147.65823346
 20
685.700826264
 10
147.634930929
 20
685.625390724
 10
144.872891101
 20
676.987293191
 10
145.212988471
 20
672.68491949
 10
146.281036711
 20
669.261015809
 10
148.54421799
 20
666.67903475
 10
152.92984107
 20
664.489378627
 10
156.084115904
 20
664.499922536
 10
167.09541146
 20
667.531964605
 10
168.678754233
 20
668.277809365
 10
174.883552333
 20
673.563294592
 10
177.996768954
 20
680.020163099
 10
181.150501226
 20
687.569087791
 10
183.579972436
 20
694.27131182
 10
184.768700519
 20
702.190396508
 10
184.413831454
 20
709.378421016
 10
180.957845915
 20
734.779770236
 10
177.246605736
 20
750.968358718
 10
177.24180845
 20
750.989548739
 10
174.548651588
 20
763.037289514
 10
171.75631609
 20
773.782099149
 10
171.7247725
 20
773.92774876
  0
LWPOLYLINE
  5
6DC
330
1F
100
AcDbEntity
  8
outline
 67
0
100
AcDbPolyline
 90
41
 70
0
 10
328.068194387
 20
890.761045981
 10
319.298940387
 20
879.04372457
 10
301.390809209
 20
850.811914798
 10
295.782061851
 20
840.94602728
 10
292.047183923
 20
829.365483635
 10
289.864390833
 20
818.573428657
 10
284.801178788
 20
778.724256449
 10
281.241004747
 20
725.493737548
 10
279.929787217
 20
704.16880771
 10
280.15012844
 20
696.774595679
 10
289.913733001
 20
701.100299359
 10
296.41867925
 20
707.560550549
 10
296.580265437
 20
707.707573847
 10
303.477095406
 20
713.452591638
 10
303.915083169
 20
713.745210676
 10
314.153730589
 20
719.120522676
 10
314.540574005
 20
719.283791352
 10
323.904225799
 20
722.337999808
 10
324.468599155
 20
722.45232909
 10
336.489378107
 20
723.469892329
 10
336.762309394
 20
723.478031184
 10
354.016729201
 20
723.049578443
 10
356.357188357
 20
731.034554585
 10
365.74553082
 20
767.553080555
 10
372.86695944
 20
799.999703992
 10
372.877292485
 20
800.044787552
 10
378.515664302
 20
823.640726537
 10
381.73959635
 20
844.710415783
 10
381.782179568
 20
844.925274027
 10
386.417198328
 20
863.908518357
 10
386.502104863
 20
864.185497172
 10
390.059134832
 20
873.768357368
 10
390.114391523
 20
873.904772265
 10
396.051981743
 20
887.406714325
 10
391.18163947
 20
886.369103272
 10
390.663164933
 20
886.314229408
 10
383.278759258
 20
886.306987916
 10
383.099111048
 20
886.313274348
 10
352.810001953
 20
888.465538196
 10
352.756185761
 20
888.469946826
 10
328.068194387
 20
890.761045981
  0
LWPOLYLINE
  5
6DD
330
1F
100
AcDbEntity
  8
outline
 67
0
100
AcDbPolyline
 90
14
 70
0
 10
426.776732137
 20
911.870429129
 10
433.329769173
 20
912.538680068
 10
434.590558254
 20
912.33972581
 10
439.468084305
 20
910.19280406
 10
440.372822559
 20
909.364779326
 10
441.479865358
 20
925.940072649
 10
432.774259379
 20
916.985317623
 10
432.71015757
 20
916.925313017
 10
432.655542983
 20
916.870997138
 10
432.628938376
 20
916.849285119
 10
432.602364363
 20
916.82440964
 10
428.444026792
 20
913.284132041
 10
428.440187115
 20
913.280869729
 10
426.776732137
 20
911.870429129
  0
LWPOLYLINE
  5
6DE
330
1F
100
AcDbEntity
  8
outline
 67
0
100
AcDbPolyline
 90
34
 70
0
 10
750.171073091
 20
750.415204878
 10
750.16118064
 20
750.38189523
 10
750.127986499
 20
750.300415692
 10
750.097068518
 20
750.218045523
 10
750.081727901
 20
750.186867667
 10
750.068618169
 20
750.154688043
 10
750.027597475
 20
750.076854446
 10
749.988754685
 20
749.997911405
 10
749.970431973
 20
749.968387322
 10
749.954231213
 20
749.93764763
 10
728.951075744
 20
714.427645096
 10
728.789478768
 20
714.187372444
 10
704.149249385
 20
681.775642359
 10
703.72403476
 20
681.339057073
 10
677.387971257
 20
660.198449116
 10
715.666517639
 20
657.501443621
 10
751.058592051
 20
656.640420248
 10
755.832777595
 20
656.723072136
 10
762.670167906
 20
666.318805101
 10
765.168265009
 20
672.853430381
 10
765.406545573
 20
673.321974374
 10
766.169620439
 20
674.497431096
 10
766.173881955
 20
674.503973234
 10
768.183920481
 20
677.579207157
 10
768.70506084
 20
678.155735953
 10
775.582088726
 20
683.714095033
 10
775.588731458
 20
683.718945104
 10
775.594902685
 20
683.724382477
 10
778.40772785
 20
685.967443093
 10
781.107410254
 20
707.990051713
 10
773.700916081
 20
732.142046017
 10
750.816591468
 20
752.424841957
 10
750.183283874
 20
750.447736248
 10
750.171073091
 20
750.415204878
  0
LWPOLYLINE
  5
6DF
330
1F
100
AcDbEntity
  8
outline
 67
0
100
AcDbPolyline
 90
31
 70
0
 10
752.486118632
 20
757.626352137
 10
777.543248741
 20
735.417758901
 10
778.275166223
 20
734.279813733
 10
786.043735672
 20
708.947120463
 10
786.135021568
 20
707.909966135
 10
784.070993821
 20
691.072698467
 10
791.373865129
 20
703.05383126
 10
793.790541363
 20
720.584206347
 10
795.223733431
 20
746.253784725
 10
795.236493343
 20
746.402448385
 10
798.388542016
 20
773.57919643
 10
798.414063889
 20
773.74840861
 10
801.11075851
 20
788.244132762
 10
801.148523184
 20
788.414013757
 10
804.551425975
 20
801.545857605
 10
804.762193269
 20
802.088779298
 10
811.99313388
 20
815.742395535
 10
818.344524649
 20
828.246259109
 10
818.437599441
 20
828.413339747
 10
828.463390705
 20
844.894560706
 10
833.321341528
 20
856.79383863
 10
835.117853573
 20
864.486278797
 10
817.55451158
 20
868.761147684
 10
803.171607188
 20
872.227850386
 10
798.655866525
 20
856.831046535
 10
798.302599101
 20
856.097562109
 10
786.833327141
 20
839.770995608
 10
774.65970645
 20
813.51482265
 10
764.628914907
 20
789.763519109
 10
754.846091698
 20
764.944196794
 10
752.486118632
 20
757.626352137
  0
LWPOLYLINE
  5
6E0
330
1F
100
AcDbEntity
  8
outline
 67
0
100
AcDbPolyline
 90
14
 70
0
 10
784.685050767
 20
684.140139304
 10
790.610175719
 20
677.867392673
 10
791.029830954
 20
677.266742989
 10
798.309889005
 20
662.674140946
 10
800.821879752
 20
657.639982404
 10
802.371239253
 20
673.959363802
 10
802.890343593
 20
675.262643201
 10
811.47309631
 20
686.24332177
 10
811.481082307
 20
686.25348471
 10
818.727166828
 20
695.425909405
 10
795.031947934
 20
699.448551106
 10
786.629269973
 20
685.663069173
 10
785.812847906
 20
684.840059255
 10
784.685050767
 20
684.140139304
  0
LWPOLYLINE
  5
6E1
330
1F
100
AcDbEntity
  8
outline
 67
0
100
AcDbPolyline
 90
16
 70
0
 10
482.394821539
 20
665.82283966
 10
486.875564825
 20
654.330488055
 10
494.466750112
 20
635.503322837
 10
499.221904982
 20
626.436498837
 10
499.30528615
 20
626.261302064
 10
501.87973878
 20
620.262513898
 10
561.277710956
 20
631.89003479
 10
544.08695164
 20
634.944044615
 10
543.783905451
 20
635.017637156
 10
528.873053185
 20
639.64060112
 10
528.691335294
 20
639.704716145
 10
507.384605848
 20
648.159116349
 10
506.94515413
 20
648.386130386
 10
492.761413743
 20
657.596260591
 10
492.567180522
 20
657.736040552
 10
482.394821539
 20
665.82283966
  0
LWPOLYLINE
  5
6E2
330
1F
100
AcDbEntity
  8
outline
 67
0
100
AcDbPolyline
 90
21
 70
0
 10
287.001017751
 20
618.977926223
 10
294.876583403
 20
623.051186343
 10
295.195381268
 20
623.188914014
 10
303.591094289
 20
626.142662405
 10
303.952860119
 20
626.240173992
 10
313.670826554
 20
628.091808789
 10
313.968081334
 20
628.130157479
 10
320.118197542
 20
628.550996007
 10
312.969515089
 20
635.663986626
 10
312.811758438
 20
635.836360295
 10
305.492020994
 20
644.626083876
 10
305.140354963
 20
645.1844727
 10
299.311453924
 20
657.905233973
 10
299.260048167
 20
658.025650234
 10
292.299899209
 20
675.589626124
 10
292.150170355
 20
676.150292308
 10
289.349026601
 20
695.381362764
 10
280.260548088
 20
691.354769439
 10
280.233059537
 20
661.171239072
 10
281.181047882
 20
617.388751208
 10
287.001017751
 20
618.977926223
  0
LWPOLYLINE
  5
6E3
330
1F
100
AcDbEntity
  8
outline
 67
0
100
AcDbPolyline
 90
15
 70
0
 10
294.003580983
 20
698.115229002
 10
297.055852878
 20
677.160054609
 10
303.884254008
 20
659.928545117
 10
309.54721522
 20
647.569924309
 10
316.579100301
 20
639.125861037
 10
324.991425756
 20
630.755536514
 10
337.880565598
 20
659.456511222
 10
343.017992124
 20
677.329193968
 10
352.012194905
 20
718.097812724
 10
336.774878475
 20
718.476177807
 10
325.179156883
 20
717.494595826
 10
316.291365598
 20
714.595602154
 10
306.47375382
 20
709.441334774
 10
299.864426025
 20
703.935804562
 10
294.003580983
 20
698.115229002
  0
LWPOLYLINE
  5
6E4
330
1F
100
AcDbEntity
  8
outline
 67
0
100
AcDbPolyline
 90
25
 70
0
 10
358.939188874
 20
722.067360099
 10
362.651697569
 20
720.748582988
 10
362.887855482
 20
720.650828579
 10
371.193984516
 20
716.703842109
 10
371.420471107
 20
716.58154768
 10
376.832683344
 20
713.288509843
 10
422.40770921
 20
785.869599746
 10
424.14222555
 20
812.076730393
 10
424.188178696
 20
812.416020867
 10
425.677919881
 20
819.648030367
 10
413.603402546
 20
834.979895833
 10
413.468843077
 20
835.168052489
 10
397.950470405
 20
859.138723016
 10
397.921065907
 20
859.185258243
 10
392.963772093
 20
867.225287785
 10
391.240092084
 20
862.581586527
 10
386.665491331
 20
843.845790984
 10
383.442491427
 20
822.78219367
 10
383.40279708
 20
822.579294762
 10
377.745754714
 20
798.905221672
 10
370.619748706
 20
766.437742761
 10
370.599138555
 20
766.351219351
 10
361.189298125
 20
729.749071158
 10
361.167100156
 20
729.668355137
 10
358.939188874
 20
722.067360099
  0
LWPOLYLINE
  5
6E5
330
1F
100
AcDbEntity
  8
outline
 67
0
100
AcDbPolyline
 90
12
 70
0
 10
426.854181588
 20
826.235779922
 10
439.70050902
 20
900.467538243
 10
436.67892231
 20
905.957563997
 10
433.180358277
 20
907.497513377
 10
422.507144017
 20
906.40910423
 10
418.659492846
 20
904.985924647
 10
405.617621486
 20
893.853403862
 10
402.482037881
 20
889.60779363
 10
395.219680234
 20
873.093361251
 10
402.162645496
 20
861.83285342
 10
417.603137122
 20
837.982482935
 10
426.854181588
 20
826.235779922
  0
LWPOLYLINE
  5
6E6
330
1F
100
AcDbEntity
  8
outline
 67
0
100
AcDbPolyline
 90
8
 70
0
 10
65.1097006371
 20
666.741843821
 10
66.3748877005
 20
661.198883725
 10
66.5478473364
 20
660.806299751
 10
79.5331621639
 20
799.313277965
 10
79.0307621186
 20
799.654024311
 10
78.0836782352
 20
800.147713702
 10
75.4440132499
 20
773.009238909
 10
65.1097006371
 20
666.741843821
  0
LWPOLYLINE
  5
6E7
330
1F
100
AcDbEntity
  8
outline
 67
0
100
AcDbPolyline
 90
6
 70
0
 10
81.9586077683
 20
825.184128687
 10
82.8023603142
 20
834.183957883
 10
81.4127824138
 20
834.319503296
 10
80.899247623
 20
829.094666925
 10
80.5513210512
 20
825.517623418
 10
81.9586077683
 20
825.184128687
  0
LWPOLYLINE
  5
6E8
330
1F
100
AcDbEntity
  8
outline
 67
0
100
AcDbPolyline
 90
18
 70
0
 10
88.0083014513
 20
836.146747639
 10
86.8713856786
 20
824.019912806
 10
89.1447050246
 20
823.481188172
 10
89.1635600575
 20
823.47573013
 10
89.1828006791
 20
823.471844133
 10
112.207372696
 20
817.632546671
 10
119.047697144
 20
816.887228928
 10
124.745267878
 20
817.850845091
 10
127.061814967
 20
818.793732944
 10
126.868450421
 20
865.994895034
 10
121.872763102
 20
866.031081627
 10
118.611375505
 20
863.11836852
 10
108.488398373
 20
852.489069864
 10
108.127744654
 20
852.176441985
 10
98.419909442
 20
845.26666395
 10
97.8370028918
 20
844.958492839
 10
88.7421270757
 20
841.59657959
 10
88.0083014513
 20
836.146747639
  0
LWPOLYLINE
  5
6E9
330
1F
100
AcDbEntity
  8
outline
 67
0
100
AcDbPolyline
 90
10
 70
0
 10
117.427503258
 20
812.034171493
 10
124.549777483
 20
808.109770588
 10
124.78403769
 20
807.970075017
 10
127.112293192
 20
806.471769529
 10
127.083892879
 20
813.404414589
 10
126.375650625
 20
813.11614373
 10
125.850070338
 20
812.96669149
 10
119.539056639
 20
811.899325224
 10
118.851362427
 20
811.879028633
 10
117.427503258
 20
812.034171493
  0
LWPOLYLINE
  5
6EA
330
1F
100
AcDbEntity
  8
outline
 67
0
100
AcDbPolyline
 90
5
 70
0
 10
135.136080668
 20
800.681525006
 10
135.43906216
 20
800.406723556
 10
135.370469812
 20
818.199007522
 10
135.06564637
 20
817.874856436
 10
135.136080668
 20
800.681525006
  0
LWPOLYLINE
  5
6EB
330
1F
100
AcDbEntity
  8
outline
 67
0
100
AcDbPolyline
 90
18
 70
0
 10
71.0973608172
 20
655.767348519
 10
75.8184461734
 20
653.236828418
 10
81.3734626762
 20
652.336133782
 10
81.5679362925
 20
652.29964383
 10
87.6066997979
 20
651.011177302
 10
93.2754597696
 20
657.120629171
 10
97.5478890018
 20
667.186378407
 10
102.538454612
 20
679.571162296
 10
105.404367032
 20
689.784345377
 10
107.315425504
 20
704.241734906
 10
109.632802575
 20
725.07112844
 10
109.992867068
 20
740.682505832
 10
107.654941241
 20
757.457410615
 10
101.722114199
 20
772.911462096
 10
93.8940636998
 20
784.960873263
 10
86.1941061935
 20
794.795578661
 10
84.2548536447
 20
796.110851669
 10
71.0973608172
 20
655.767348519
  0
LWPOLYLINE
  5
6EC
330
1F
100
AcDbEntity
  8
outline
 67
0
100
AcDbPolyline
 90
4
 70
0
 10
120.815541682
 20
666.739402865
 10
120.889104984
 20
666.946465916
 10
121.042903504
 20
667.459865819
 10
120.815541682
 20
666.739402865
  0
LWPOLYLINE
  5
6ED
330
1F
100
AcDbEntity
  8
outline
 67
0
100
AcDbPolyline
 90
8
 70
0
 10
128.401408
 20
664.194852068
 10
126.268309309
 20
658.190690832
 10
129.864520293
 20
659.246099443
 10
134.962927056
 20
672.270175735
 10
137.013597675
 20
678.675227461
 10
140.002963536
 20
688.024272181
 10
141.216083232
 20
692.093395382
 10
128.401408
 20
664.194852068
  0
LWPOLYLINE
  5
6EE
330
1F
100
AcDbEntity
  8
outline
 67
0
100
AcDbPolyline
 90
4
 70
0
 10
139.381620535
 20
661.611539132
 10
141.838141198
 20
662.193013371
 10
140.297360991
 20
663.950833369
 10
139.381620535
 20
661.611539132
  0
LWPOLYLINE
  5
6EF
330
1F
100
AcDbEntity
  8
outline
 67
0
100
AcDbPolyline
 90
7
 70
0
 10
62.5695665708
 20
640.573460206
 10
64.7653729642
 20
641.303917258
 10
64.8704763894
 20
642.932743513
 10
64.876266733
 20
643.005798201
 10
65.5180511007
 20
649.831260016
 10
63.6159777786
 20
651.349276152
 10
62.5695665708
 20
640.573460206
  0
LWPOLYLINE
  5
6F0
330
1F
100
AcDbEntity
  8
outline
 67
0
100
AcDbPolyline
 90
6
 70
0
 10
69.8915662001
 20
642.933957449
 10
76.5242345341
 20
645.017915045
 10
73.8779500664
 20
645.446985638
 10
72.6284734706
 20
645.869926095
 10
70.285703465
 20
647.125659924
 10
69.8915662001
 20
642.933957449
  0
LWPOLYLINE
  5
6F1
330
1F
100
AcDbEntity
  8
outline
 67
0
100
AcDbPolyline
 90
35
 70
0
 10
85.7295435507
 20
811.840531341
 10
85.7154341534
 20
811.690034414
 10
92.2199710761
 20
809.341637119
 10
92.2606346611
 20
809.324657099
 10
92.3024722801
 20
809.310820123
 10
92.4416733088
 20
809.249060224
 10
92.5822002976
 20
809.190379929
 10
92.6210037433
 20
809.169495944
 10
92.661283642
 20
809.151624793
 10
92.7937608509
 20
809.076518198
 10
92.9278594892
 20
809.004346411
 10
92.9644290972
 20
808.979759585
 10
93.0027633581
 20
808.958026369
 10
93.1272409193
 20
808.870296395
 10
93.2536197638
 20
808.78532817
 10
93.2876033488
 20
808.757275288
 10
93.323622792
 20
808.731889308
 10
105.040298728
 20
799.581729079
 10
105.801362717
 20
798.79812203
 10
114.715263126
 20
786.670365319
 10
115.101807962
 20
786.02501352
 10
121.284022169
 20
773.078042339
 10
121.546424386
 20
772.358234834
 10
124.730729781
 20
760.075109524
 10
124.81763277
 20
759.64321313
 10
126.95381279
 20
744.85553067
 10
127.200421699
 20
757.21945069
 10
127.222572579
 20
779.552071267
 10
127.174233631
 20
791.351827589
 10
118.212722377
 20
797.208180401
 10
93.5498984856
 20
809.928805631
 10
88.2246250734
 20
811.221070767
 10
88.2144297956
 20
811.224081574
 10
88.2039992505
 20
811.226133981
 10
85.7295435507
 20
811.840531341
  0
LWPOLYLINE
  5
6F2
330
1F
100
AcDbEntity
  8
outline
 67
0
100
AcDbPolyline
 90
8
 70
0
 10
135.222088934
 20
779.56448941
 10
135.222578738
 20
779.55431328
 10
135.205163
 20
761.995684645
 10
135.560275017
 20
768.965118037
 10
135.513236722
 20
781.166459887
 10
135.21438689
 20
781.566621361
 10
135.222547141
 20
779.574667011
 10
135.222088934
 20
779.56448941
  0
LWPOLYLINE
  5
6F3
330
1F
100
AcDbEntity
  8
outline
 67
0
100
AcDbPolyline
 90
13
 70
0
 10
142.186079221
 20
735.595617802
 10
142.183516221
 20
735.507881587
 10
141.084929197
 20
721.50458107
 10
141.055783389
 20
721.243427974
 10
139.788405284
 20
712.502929991
 10
142.084364175
 20
720.262246994
 10
144.785494215
 20
732.599400162
 10
145.934242619
 20
749.633758221
 10
144.030618634
 20
763.292088397
 10
143.380732168
 20
765.23772857
 10
142.857274988
 20
754.964350665
 10
142.193400232
 20
735.683085597
 10
142.186079221
 20
735.595617802
  0
LWPOLYLINE
  5
6F4
330
1F
100
AcDbEntity
  8
outline
 67
0
100
AcDbPolyline
 90
9
 70
0
 10
55.1843544506
 20
817.715987343
 10
69.4027913525
 20
815.894397997
 10
67.8117516213
 20
816.289446739
 10
44.5597535022
 20
820.174173547
 10
36.448929144
 20
820.964838268
 10
36.3615848289
 20
820.303166821
 10
41.6718423389
 20
819.781512127
 10
41.8869021334
 20
819.754484748
 10
55.1843544506
 20
817.715987343
  0
LWPOLYLINE
  5
6F5
330
1F
100
AcDbEntity
  8
outline
 67
0
100
AcDbPolyline
 90
29
 70
0
 10
81.1408089296
 20
905.221320819
 10
80.5153804165
 20
894.588837675
 10
80.6421534906
 20
883.336791338
 10
80.8607502003
 20
873.859411233
 10
82.2358569485
 20
846.296472403
 10
86.1234294551
 20
845.959247386
 10
95.7914540837
 20
849.533024615
 10
105.033017684
 20
856.11092296
 10
115.060356703
 20
866.639799967
 10
115.205434368
 20
866.780305021
 10
119.261378433
 20
870.402628675
 10
119.309022642
 20
870.441148589
 10
119.354715992
 20
870.481963686
 10
119.39635337
 20
870.51237907
 10
119.436192419
 20
870.545114633
 10
119.444443107
 20
870.550634814
 10
119.45216275
 20
870.556876077
 10
119.503353151
 20
870.590540557
 10
119.552827054
 20
870.626680387
 10
119.597245166
 20
870.652868136
 10
119.640101026
 20
870.681541158
 10
126.83156875
 20
874.997878133
 10
126.782110967
 20
887.070747291
 10
111.945428745
 20
898.546325658
 10
111.784759298
 20
898.681761988
 10
98.1400008403
 20
911.20150412
 10
98.1285031973
 20
911.21212025
 10
95.8217245044
 20
913.355454531
 10
81.1408089296
 20
905.221320819
  0
LWPOLYLINE
  5
6F6
330
1F
100
AcDbEntity
  8
outline
 67
0
100
AcDbPolyline
 90
5
 70
0
 10
135.035876224
 20
825.141884157
 10
135.342446993
 20
825.467893362
 10
135.199180903
 20
862.629924009
 10
134.881555214
 20
862.812342139
 10
135.035876224
 20
825.141884157
  0
LWPOLYLINE
  5
6F7
330
1F
100
AcDbEntity
  8
outline
 67
0
100
AcDbPolyline
 90
5
 70
0
 10
82.0862794907
 20
841.290671196
 10
81.8954426514
 20
839.296153452
 10
83.3679085944
 20
839.152522782
 10
83.6376916983
 20
841.156094926
 10
82.0862794907
 20
841.290671196
  0
LWPOLYLINE
  5
6F8
330
1F
100
AcDbEntity
  8
outline
 67
0
100
AcDbPolyline
 90
5
 70
0
 10
67.5809315747
 20
828.591308752
 10
72.6946625259
 20
827.379471601
 10
72.7261410477
 20
827.703103228
 10
67.6649821532
 20
828.620575083
 10
67.5809315747
 20
828.591308752
  0
LWPOLYLINE
  5
6F9
330
1F
100
AcDbEntity
  8
outline
 67
0
100
AcDbPolyline
 90
10
 70
0
 10
99.6291901481
 20
916.642922912
 10
101.526156542
 20
914.880364104
 10
115.087663381
 20
902.43700946
 10
126.7561337
 20
893.411915873
 10
126.487426542
 20
959.004551174
 10
110.47383633
 20
930.920419
 10
110.39865744
 20
930.7970045
 10
106.953681898
 20
925.493056973
 10
106.780699275
 20
925.258003191
 10
99.6291901481
 20
916.642922912
  0
LWPOLYLINE
  5
6FA
330
1F
100
AcDbEntity
  8
outline
 67
0
100
AcDbPolyline
 90
5
 70
0
 10
134.43899128
 20
970.844204444
 10
134.781630096
 20
887.204516439
 10
135.105407022
 20
886.954087978
 10
134.780116271
 20
971.331799896
 10
134.43899128
 20
970.844204444
  0
LWPOLYLINE
  5
6FB
330
1F
100
AcDbEntity
  8
outline
 67
0
100
AcDbPolyline
 90
6
 70
0
 10
134.820605115
 20
877.690537509
 10
135.002217475
 20
877.742823805
 10
135.140826009
 20
877.766697758
 10
135.129848751
 20
880.614107074
 10
134.807607362
 20
880.863347857
 10
134.820605115
 20
877.690537509
  0
LWPOLYLINE
  5
6FC
330
1F
100
AcDbEntity
  8
outline
 67
0
100
AcDbPolyline
 90
5
 70
0
 10
134.857679887
 20
868.640417733
 10
135.176767082
 20
868.443882682
 10
135.160800859
 20
872.585387889
 10
134.841895022
 20
872.493574727
 10
134.857679887
 20
868.640417733
  0
LWPOLYLINE
  5
6FD
330
1F
100
AcDbEntity
  8
outline
 67
0
100
AcDbPolyline
 90
19
 70
0
 10
944.497242717
 20
865.058502525
 10
925.367240458
 20
861.741376318
 10
927.952121025
 20
851.891363122
 10
951.271634724
 20
793.680609752
 10
951.425527843
 20
793.215910418
 10
956.828369663
 20
772.78871614
 10
956.84884104
 20
770.823911863
 10
956.1454962
 20
767.921325367
 10
956.837167163
 20
768.362540223
 10
960.519056435
 20
781.94535914
 10
959.479762472
 20
792.748968043
 10
956.777368522
 20
801.764089371
 10
950.72868747
 20
810.361154684
 10
950.337890153
 20
811.235224903
 10
947.16108886
 20
824.941287168
 10
947.099405864
 20
825.385811488
 10
946.384943541
 20
840.257869531
 10
945.106519662
 20
862.760430928
 10
944.497242717
 20
865.058502525
  0
LWPOLYLINE
  5
6FE
330
1F
100
AcDbEntity
  8
outline
 67
0
100
AcDbPolyline
 90
32
 70
0
 10
847.262145974
 20
669.766987171
 10
852.436267836
 20
673.332570235
 10
874.634868876
 20
688.630546534
 10
874.645300603
 20
688.637711156
 10
904.496352044
 20
709.070316272
 10
904.572660456
 20
709.121272878
 10
930.667580582
 20
726.117219103
 10
941.048461591
 20
739.294534152
 10
946.537066617
 20
762.238973591
 10
946.539813407
 20
762.250382224
 10
948.835167806
 20
771.722925855
 10
943.754180562
 20
790.933244611
 10
920.433222755
 20
849.1476028
 10
920.277358497
 20
849.619783929
 10
917.40861521
 20
860.551491793
 10
897.713033378
 20
858.139719537
 10
893.41489616
 20
825.468877925
 10
896.535783333
 20
807.207571888
 10
896.353001574
 20
805.764267149
 10
890.917010141
 20
793.630942397
 10
891.807933353
 20
771.397489071
 10
891.762148438
 20
770.810909588
 10
886.903459762
 20
746.319691116
 10
886.794279048
 20
745.934271293
 10
877.907115239
 20
722.052111937
 10
877.546485173
 20
721.400828556
 10
866.89589166
 20
707.539258815
 10
866.867499744
 20
707.503003305
 10
847.469714939
 20
683.197218513
 10
847.254816481
 20
682.960691337
 10
842.313283783
 20
678.175601879
 10
847.262145974
 20
669.766987171
  0
LWPOLYLINE
  5
6FF
330
1F
100
AcDbEntity
  8
outline
 67
0
100
AcDbPolyline
 90
20
 70
0
 10
819.462305353
 20
629.222267786
 10
840.909422926
 20
609.66263981
 10
843.638949183
 20
613.063892174
 10
843.678610442
 20
613.112069577
 10
851.42206386
 20
622.282524694
 10
859.718038485
 20
638.463735035
 10
861.215416794
 20
642.498528305
 10
861.354096953
 20
642.806600537
 10
864.412006215
 20
648.531268502
 10
864.677868341
 20
648.931115574
 10
872.948971412
 20
659.09742122
 10
872.996596406
 20
659.154217698
 10
881.388502374
 20
668.866079295
 10
860.220032202
 20
665.230357438
 10
851.160134979
 20
659.383133306
 10
847.809622881
 20
659.976803015
 10
847.584504672
 20
660.274826798
 10
833.08434462
 20
650.292188038
 10
823.893738059
 20
642.217525423
 10
819.462305353
 20
629.222267786
  0
ENDSEC
  0
SECTION
  2
OBJECTS
  0
DICTIONARY
  5
C
330
0
100
AcDbDictionary
281
1
  3
ACAD_COLOR
350
524
  3
ACAD_GROUP
350
525
  3
ACAD_LAYOUT
350
526
  3
ACAD_MATERIAL
350
527
  3
ACAD_MLEADERSTYLE
350
528
  3
ACAD_MLINESTYLE
350
529
  3
ACAD_PLOTSETTINGS
350
52A
  3
ACAD_PLOTSTYLENAME
350
52C
  3
ACAD_SCALELIST
350
52D
  3
ACAD_TABLESTYLE
350
52E
  3
ACAD_VISUALSTYLE
350
52F
  0
DICTIONARY
  5
524
330
C
100
AcDbDictionary
281
1
  0
DICTIONARY
  5
525
330
C
100
AcDbDictionary
281
1
  0
DICTIONARY
  5
526
330
C
100
AcDbDictionary
281
1
  3
Model
350
530
  3
Layout1
350
531
  0
DICTIONARY
  5
527
330
C
100
AcDbDictionary
281
1
  0
DICTIONARY
  5
528
330
C
100
AcDbDictionary
281
1
  0
DICTIONARY
  5
529
330
C
100
AcDbDictionary
281
1
  0
DICTIONARY
  5
52A
330
C
100
AcDbDictionary
281
1
  0
ACDBPLACEHOLDER
  5
52B
330
52C
  0
ACDBDICTIONARYWDFLT
  5
52C
330
C
100
AcDbDictionary
281
1
  3
Normal
350
52B
100
AcDbDictionaryWithDefault
340
52B
  0
DICTIONARY
  5
52D
330
C
100
AcDbDictionary
281
1
  0
DICTIONARY
  5
52E
330
C
100
AcDbDictionary
281
1
  0
DICTIONARY
  5
52F
330
C
100
AcDbDictionary
281
1
  0
LAYOUT
  5
530
330
526
100
AcDbPlotSettings
  1

  2
DWFx ePlot (XPS Compatible).pc3
  4
ANSI_A_(8.50_x_11.00_Inches)
  6

 40
5.8
 41
17.8
 42
5.8
 43
17.8
 44
215.9
 45
279.4
 46
0.0
 47
0.0
 48
0.0
 49
0.0
140
0.0
141
0.0
142
1.0
143
14.53
 70
11952
 72
0
 73
1
 74
0
  7

 75
0
147
0.069
148
114.98
149
300.29
100
AcDbLayout
  1
Model
 70
1
 71
0
 10
0.0
 20
0.0
 11
12.0
 21
9.0
 12
0.0
 22
0.0
 32
0.0
 14
0.0
 24
0.0
 34
0.0
 15
0.0
 25
0.0
 35
0.0
146
0.0
 13
0.0
 23
0.0
 33
0.0
 16
1.0
 26
0.0
 36
0.0
 17
0.0
 27
1.0
 37
0.0
 76
0
330
1F
  0
LAYOUT
  5
531
330
526
100
AcDbPlotSettings
  1

  2
DWFx ePlot (XPS Compatible).pc3
  4
ANSI_A_(8.50_x_11.00_Inches)
  6

 40
5.8
 41
17.8
 42
5.8
 43
17.8
 44
215.9
 45
279.4
 46
0.0
 47
0.0
 48
0.0
 49
0.0
140
0.0
141
0.0
142
1.0
143
1.0
 70
688
 72
0
 73
1
 74
5
  7
acad.ctb
 75
16
147
1.0
148
0.0
149
0.0
100
AcDbLayout
  1
Layout1
 70
1
 71
1
 10
-0.7
 20
-0.23
 11
10.3
 21
8.27
 12
0.0
 22
0.0
 32
0.0
 14
0.63
 24
0.8
 34
0.0
 15
9.0
 25
7.2
 35
0.0
146
0.0
 13
0.0
 23
0.0
 33
0.0
 16
1.0
 26
0.0
 36
0.0
 17
0.0
 27
1.0
 37
0.0
 76
0
330
58
  0
ENDSEC
  0
EOF
